Francesca Battistelli

A Hundred More Years tab

Francesca Battistelli

tools Ultimate Tabs

Start AutoScroll Font Size Down Font Size Up

Find us on Facebook

chords
tabs
bass
ukulele
keyboards
drums
flute
harmonica
guitar pro
video
Ultimate-Tabs

A Hundred More Years

Capo 2

Intro
------------------------------------------------------|
--------0-----0-----0-------------0-----0-----0-------|
------------------------------------------------------|
----2-----2-----2-----2---2---2-----2-----2-----2---2-|
------------------------------------------------------|
--0---0-----0-----0-----0---0---0-----0-----0-----0---|


Verse 1
Diamond ring and twelve red roses.....
--------------------------------------------------------|
--------0-----0-----0-------------2-----2-----2---------|
--------------------------------------------------------|
----2-----2-----2-----2---2---2-----2-----2-----2---2---|
----------------------------0---0-----0-----0-----0-----|
--0---0-----0-----0-----0-------------------------------|

All these dreams and now they're finally here...
-------------------------------------------------------------|
----------4---------------2-------------0-----0-----0--------|
-------------------------------------------------------------|
------2------2---2----2-----2---2---2-----2-----2-----2---2--|
----2---2------2----0---0-----0------------------------------|
----------------------------------0---0-----0-----0-----0----|

She's so young and he's so perfect...
--------------------------------------------------------|
--------0-----0-----0-------------2-----2-----2---------|
--------------------------------------------------------|
----2-----2-----2-----2---2---2-----2-----2-----2---2---|
----------------------------0---0-----0-----0-----0-----|
--0---0-----0-----0-----0-------------------------------|

She want's to feel like this for a hundred years...
-------------------------------------------------------------|
----------4---------------2-------------0-----0-----0--------|
-------------------------------------------------------------|
------2------2---2----2-----2---2---2-----2-----2-----2---2--|
----2---2------2----0---0-----0------------------------------|
----------------------------------0---0-----0-----0-----0----|

All this life still left to live and they can hardly wait
--------------------------------------0----|
--5---4---2---0-----------------0-------0--|
------------------2------2--------2--------|
------------------2--2-----2---------------|
--4---2---0-------------------------0------|
--------------4---2----2------2------------|



Chorus

They can laugh, they can cry
---------------------------------------------------------|
--------0-----0-----0-------------4-----4-----4----------|
---------------------------------------------------------|
----2-----2-----2-----2---2---2-----2-----2-----2---2----|
----------------------------2---2-----2-----2-----2------|
------0-----0-----0-----0--------------------------------|

The future looks so beautiful and bright
--------------------------------------------------------|
--------0-----0-----0-------------2-----2-----2---------|
------------------------------------2-----2-----2---2---|
----2-----2-----2-----2---2---2-------------------------|
----------------------------0---0------0----0-----0-----|
--2---2-----2-----2-----2-------------------------------|

They can dance under the moonlight
--------------------------------------------------------|
-------0-----0-----0-------------4-----4-----4----------|
--------------------------------------------------------|
---2-----2-----2-----2---2---2-----2-----2-----2---2----|
---------------------------2---2-----2-----2-----2------|
-----0-----0-----0-----0--------------------------------|

Cause God is smiling down on them tonight
--------------------------------------------------------|
--------0-----0-----0-------------2-----2-----2---------|
--------------------------------------------------------|
----2-----2-----2-----2---2---2-----2-----2-----2---2---|
----------------------------0---0------0----0-----0-----|
--2---2-----2-----2-----2-------------------------------|

And she wants to stay right here, make it last for a hundred more years
-------------------------------------------------------------------|
--------5-------------4-------------2-----2-------0-------------4--|
-----------------------------------------------------2-----2----4--|
----2-----2---2---2-----2---2---2-----2-----2---2----2-2-----2-----|
--4---4-----4---2---2-----2---0---2-----2-----2--------------------|
--------------------------------------------------4--2---2------2--|


------------------------------------------------------|
--------0-----0-----0-------------0-----0-----0-------|
------------------------------------------------------|
----2-----2-----2-----2---2---2-----2-----2-----2---2-|
------------------------------------------------------|
--0---0-----0-----0-----0---0---0-----0-----0-----0---|



Verse 2
She's got blue eyes just like her mother...
--------------------------------------------------------|
--------0-----0-----0-------------2-----2-----2---------|
--------------------------------------------------------|
----2-----2-----2-----2---2---2-----2-----2-----2---2---|
----------------------------0---0-----0-----0-----0-----|
--0---0-----0-----0-----0-------------------------------|

He wants to freeze this day before it disappears...
-------------------------------------------------------------|
----------4---------------2-------------0-----0-----0--------|
-------------------------------------------------------------|
------2------2---2----2-----2---2---2-----2-----2-----2---2--|
----2---2------2----0---0-----0------------------------------|
----------------------------------0---0-----0-----0-----0----|


She's twirling like a little princess....
--------------------------------------------------------|
--------0-----0-----0-------------2-----2-----2---------|
--------------------------------------------------------|
----2-----2-----2-----2---2---2-----2-----2-----2---2---|
----------------------------0---0-----0-----0-----0-----|
--0---0-----0-----0-----0-------------------------------|

He could watch her twirl for a hundred years
-------------------------------------------------------------|
----------4---------------2-------------0-----0-----0--------|
-------------------------------------------------------------|
------2------2---2----2-----2---2---2-----2-----2-----2---2--|
----2---2------2----0---0-----0------------------------------|
----------------------------------0---0-----0-----0-----0----|

She grow up and she'll leave home but until that day...
--------------------------------------0----|
--5---4---2---0-----------------0-------0--|
------------------2------2--------2--------|
------------------2--2-----2---------------|
--4---2---0---4---------------------0------|
------------------2----2------2------------|



Chorus
They can laugh, they can cry
---------------------------------------------------------|
--------0-----0-----0-------------4-----4-----4----------|
---------------------------------------------------------|
----2-----2-----2-----2---2---2-----2-----2-----2---2----|
----------------------------2---2-----2-----2-----2------|
------0-----0-----0-----0--------------------------------|

The future looks so beautiful and bright
--------------------------------------------------------|
--------0-----0-----0-------------2-----2-----2---------|
------------------------------------2-----2-----2---2---|
----2-----2-----2-----2---2---2-------------------------|
----------------------------0---0------0----0-----0-----|
--2---2-----2-----2-----2-------------------------------|

They can dance under the moonlight
--------------------------------------------------------|
-------0-----0-----0-------------4-----4-----4----------|
--------------------------------------------------------|
---2-----2-----2-----2---2---2-----2-----2-----2---2----|
---------------------------2---2-----2-----2-----2------|
-----0-----0-----0-----0--------------------------------|

Cause God is smiling down on them tonight
--------------------------------------------------------|
--------0-----0-----0-------------2-----2-----2---------|
--------------------------------------------------------|
----2-----2-----2-----2---2---2-----2-----2-----2---2---|
----------------------------0---0------0----0-----0-----|
--2---2-----2-----2-----2-------------------------------|

And he wants to stay right here, make it last for a hundred more years
-------------------------------------------------------------------|
--------5-------------4-------------2-----2-------0-------------4--|
-----------------------------------------------------2-----2----4--|
----2-----2---2---2-----2---2---2-----2-----2---2----2-2-----2-----|
--4---4-----4---2---2-----2---0---2-----2-----2--------------------|
--------------------------------------------------4--2---2------2--|





Bridge                      And it's only time...
------------------------------------------------------------|
--------0-----0-----0-------------2-----2-----2-------------|
------------------------------------------------------------|
----2-----2-----2-----2---2---2-----2-----2-----2---2-------|
----------------------------0---0-----0-----0-----0---------|
--0---0-----0-----0-----0-----------------------------------|

But it flies right by
----------------------------------------------------------|
--------0-----0-----0-------------0-----0-----0-----------|
----------------------------------------------------------|
----2-----2-----2-----2---2---2-----2-----2-----2---2-----|
----------------------------------------------------------|
--2---2-----2-----2-----2---3---3-----3-----3-----3-------|

And today is sweeter than we know...
-------------------------------------------------------|
--------0-----0-----0-------------0-----0-----0--------|
-------------------------------------------------------|
----2-----2-----2-----2---2---2-----2-----2-----2---2--|
-------------------------------------------------------|
--3---3------3----3-----3---3---3-----3-----3-----3----|
(Musical prelude)...
--------------------------------------------------------|
-------0-----0-----0-------------4-----4-----4----------|
--------------------------------------------------------|
---2-----2-----2-----2---2---2-----2-----2-----2---2----|
---------------------------2---2-----2-----2-----2------|
-0---0-----0-----0-----0--------------------------------|

--------------------------------------------------------|
--------0-----0-----0-------------2-----2-----2---------|
--------------------------------------------------------|
----2-----2-----2-----2---2---2-----2-----2-----2---2---|
----------------------------0---0------0----0-----0-----|
--2---2-----2-----2-----2-------------------------------|


Last chorus


I've played it right along with the recorded version, pretty much perfect:) I hope you 
find this tab useful!  If you like it PLEASE rate five stars!! thanks and God bless:)
less
plus
Add to Songbook Print Version How to play lesson Submit videolesson
Click the best TAGS for this song:
None of them
Contributor: victgrun Correct

If you can not find the chords or tabs you want, look at our partner E-chords. If you are a premium member, you have total access to our video lessons.

If you find a wrong Bad To Me from Francesca Battistelli, click the correct button above.

login/signup
my songbooks
my recent views
my submits