S Frank Sinatra

I Get a Kick Out Of You tab

Frank Sinatra

Album:The Frank Sinatra Collection

Year:1986

tools Ultimate Tabs

Start AutoScroll Font Size Down Font Size Up

Find us on Facebook

chords
tabs
bass
ukulele keyboards
drums
flute
harmonica
guitar pro
video
Ultimate-Tabs

I Get a Kick Out Of You

I Get A Kick Out Of You

Arranged by Tony Crowley
Midi available from [email protected]
Tuning: EADGBE  Time Signature: 4/4

 |       |       |       |        |       |       |       |        
|--------0-------2-------3-------|5---------------7-------8-------|
|--------1-----------------------|4-------------------------------|
|--------0-----------------------|5-------------------------------|
|--------2-----------------------|4-------------------------------|
|0-------------------------------|--------------------------------|
|--------------------------------|--------------------------------|

 |       |       |       |        |       |       |       |        
|10------------------------------|10------------------------------|
|10------------------------------|9-------------------------------|
|11------------------------------|10------------------------------|
|9-------------------------------|8-------------------------------|
|--------------------------------|--------------------------------|
|--------------------------------|--------------------------------|

 |       |       |       |        |       |       |       |        
|--------0-------2-------3-------|5---------------7-------8-------|
|--------1-----------------------|4-------------------------------|
|--------0-----------------------|5-------------------------------|
|--------2-----------------------|4-------------------------------|
|0-------------------------------|--------------------------------|
|--------------------------------|--------------------------------|

 |       |       |       |        |       |       |       |        
|10--------------10------8-------|7-------------------------------|
|10------------------------------|7-------------------------------|
|11------------------------------|7-------------------------------|
|9-------------------------------|5-------------------------------|
|--------------------------------|--------------------------------|
|--------------------------------|--------------------------------|

 |       |       |       |        |       |       |       |        
|8---------------7-------5-------|5---------------3-------5-------|
|7-------------------------------|4-------------------------------|
|8-------------------------------|5-------------------------------|
|7-------------------------------|4-------------------------------|
|--------------------------------|--------------------------------|
|--------------------------------|--------------------------------|

 |       |       |       |        |       |       |       |        
|------------------------7-------|------------------------0-------|
|----------------7---------------|----------------7---------------|
|--------7-----------------------|--------7-----------------------|
|5-------------------------------|6-------------------------------|
|--------------------------------|--------------------------------|
|--------------------------------|--------------------------------|

 |       |       |       |        |       |       |       |        
|--------5-------7-------8-------|10c-------------8-------7-------|
|--------5-----------------------|--------------------------------|
|--------5-----------------------|--------------------------------|
|--------5-----------------------|--------------------------------|
|0-------------------------------|--------------------------------|
|--------------------------------|--------------------------------|

 |       |       |       |        |       |       |       |        
|--------------------------------|--------------------------------|
|----3-----------3-----------5---|--------5-----------7-----------|
|----4-----------4-----------5---|--------5-----------7-----------|
|----4-----------4-----------5---|--------5-----------7-----------|
|--------------------------------|--------------------------------|
|3-----------3-----------5-------|----5-----------7-----------7---|

 |       |       |       |               
|--------------------------------| Repeat from the start but omit
|7---------------6---------------| the last measure and contine
|7---------------6---------------| below:
|7---------------6---------------|
|--------------------------------|                   
|--------6-----------------------|

 |       |       |       |        |       |       |       |        
|--------------------------------|--------------------------------|
|7---------------8---------------|------------------------0-------|
|7---------------10--------------|0---------------2---------------|
|7---------------10--------------|2-------------------------------|
|--------------------------------|3-------------------------------|
|--------10----------------------|--------------------------------|

 |       |       |       |        |       |       |       |        
|------------------------0-------|1-----------------------0-------|
|1---------------3---------------|1-----------------------1-------|
|2-------------------------------|2-----------------------2-------|
|2-------------------------------|--------------------------------|
|--------------------------------|--------------------------------|
|--------------------------------|--------------------------------|

 |       |       |       |        |       |       |       |        
|1---------------0---------------|0-------------------------------|
|1---------------1---------------|0-----------------------3-------|
|2---------------2---------------|0-------------------------------|
|--------------------------------|2-------------------------------|
|--------------------------------|2-------------------------------|
|--------------------------------|--------------------------------|

 |       |       |       |        |       |       |       |        
|0-------------------------------|--------------------------------|
|0---------------3---------------|3-------------------------------|
|0-------------------------------|1-------------------------------|
|2-------------------------------|2-------------------------------|
|2-------------------------------|2-------------------------------|
|--------------------------------|--------------------------------|

 |       |       |       |        |       |       |       |        
|--------------------------------|--------5-------7-------8-------|
|--------------------------------|--------5-----------------------|
|--------------------------------|--------5-----------------------|
|2-------------------------------|7-------------------------------|
|--------------------------------|--------------------------------|
|--------------------------------|--------------------------------|

 |       |       |       |        |       |       |       |        
|--------0-------10------8-------|--------0-------10------8-------|
|--------0-----------------------|--------0-----------------------|
|--------9-----------------------|--------9-----------------------|
|--------10----------------------|--------10----------------------|
|11------------------------------|10------------------------------|
|--------------------------------|--------------------------------|

 |       |       |       |        |       |       |       |        
|--------0-------10------8-------|7-------------------------------|
|--------10----------------------|5-------------------------------|
|--------9-----------------------|6-------------------------------|
|--------10----------------------|5-------------------------------|
|9-------------------------------|--------------------------------|
|--------------------------------|--------------------------------|

 |       |       |       |        |       |       |       |        
|5-------12--------------5-------|3-------------------------------|
|5-----------------------5-------|2-------------------------------|
|5-----------------------5-------|3-------------------------------|
|--------------------------------|1-------------------------------|
|--------------------------------|--------------------------------|
|--------------------------------|--------------------------------|

 |       |       |       |        |       |       |       |        
|2-------------------------------|--------0-------2-------3-------|
|1-------------------------------|--------1-----------------------|
|2-------------------------------|--------0-----------------------|
|0-------------------------------|--------2-----------------------|
|--------------------------------|0-------------------------------|
|--------------------------------|--------------------------------|

 |       |       |       |        |       |       |       |        
|5---------------7-------8-------|10------------------------------|
|4-------------------------------|10------------------------------|
|5-------------------------------|11------------------------------|
|4-------------------------------|9-------------------------------|
|--------------------------------|--------------------------------|
|--------------------------------|--------------------------------|

 |       |       |       |        |       |       |       |        
|10------------------------------|--------0-------2-------3-------|
|9-------------------------------|--------1-----------------------|
|10------------------------------|--------0-----------------------|
|8-------------------------------|--------2-----------------------|
|--------------------------------|0-------------------------------|
|--------------------------------|--------------------------------|

 |       |       |       |        |       |       |       |        
|5---------------7-------8-------|10--------------12------14------|
|4-------------------------------|10------------------------------|
|5-------------------------------|11------------------------------|
|4-------------------------------|9-------------------------------|
|--------------------------------|--------------------------------|
|--------------------------------|--------------------------------|

 |       |       |       |        |       |       |       |        
|15--------------17------14------|15--------------14------12------|
|14------------------------------|14------------------------------|
|15------------------------------|15------------------------------|
|14------------------------------|14------------------------------|
|--------------------------------|--------------------------------|
|--------------------------------|--------------------------------|

 |       |       |       |        |       |       |       |        
|14--------------12------10------|7---------------10--------------|
|13------------------------------|6---------------9---------------|
|14------------------------------|7---------------10--------------|
|12------------------------------|6---------------9---------------|
|--------------------------------|--------------------------------|
|--------------------------------|--------------------------------|

 |       |       |       |        |       |       |       |        
|13----------------------0-------|5---------------7-------8-------|
|12------------------------------|5-------------------------------|
|13------------------------------|5-------------------------------|
|12------------------------------|5-------------------------------|
|--------------------------------|--------------------------------|
|--------------------------------|--------------------------------|

 |       |       |       |        |       |       |       |        
|10------------------------------|5---------------7-------8-------|
|10------------------------------|5-------------------------------|
|11------------------------------|5-------------------------------|
|9-------------------------------|5-------------------------------|
|--------------------------------|--------------------------------|
|--------------------------------|--------------------------------|

 |       |       |       |        |       |       |       |        
|10------------------------------|5---------------7-------8-------|
|9-------------------------------|5-------------------------------|
|11------------------------------|5-------------------------------|
|8-------------------------------|5-------------------------------|
|--------------------------------|--------------------------------|
|--------------------------------|--------------------------------|

 |       |       |       |        |       |       |       |        
|10------------------------------|----------------8-------7-------|
|8-------------------------------|--------------------------------|
|9-------------------------------|--------------------------------|
|7-------------------------------|--------------------------------|
|--------------------------------|--------------------------------|
|--------------------------------|--------------------------------|

 |       |       |       |        |       |       |       |        
|--------------------------------|--------------------------------|
|----3-----------3-----------3---|--------3---------------3-------|
|----5-----------5-----------5---|--------5---------------4-------|
|----5-----------5-----------4---|--------4---------------4-------|
|--------------------------------|--------------------------------|
|5-----------5-----------4-------|----4-----------3---------------|


Created with TablEdit for Mac - http://www.tabledit.com/
less
plus
Add to Songbook Print Version How to play lesson Submit videolesson
Click the best TAGS for this song:
None of them
Contributor: 9020el31 Correct

If you can not find the chords or tabs you want, look at our partner E-chords. If you are a premium member, you have total access to our video lessons.

If you find a wrong Bad To Me from Frank Sinatra, click the correct button above.

login/signup
my songbooks
my recent views
my submits