Frank Sinatra

Love Is The Sweetest Thing tab

Frank Sinatra

tools Ultimate Tabs

Start AutoScroll Font Size Down Font Size Up

Find us on Facebook

chords
tabs
bass
ukulele
keyboards
drums
flute
harmonica
guitar pro
video
Ultimate-Tabs

Love Is The Sweetest Thing

Love is the Sweetest Thing by Ray Noble
A bouncy version combining melody and accompaniment
Where possible, hold main chord while playing the notes which follow.
MIDI from [email protected]
TablEdited by Tony Crowley

 A       |       F#m7    |        Bm7     |       E7      |        
|--------5---------------2-------|--------7-----------2---0-------|
|--------5---------------2-------|--------7-------3---------------|
|--------6---------------2-------|--------7-------4---------------|
|--------7-----------------------|----7-----------2---------------|
|----7---------------4-----------|--------------------------------|
|5-----------0---2-----------6---|7---------------------------0---|
 
 A       |       F#m7    |        Bm7     |       A7      |        
|--------5---------------2-------|--------7-----------2---0-------|
|--------5---------------2-------|--------7-------3---------------|
|--------6---------------2-------|--------7-------4---------------|
|--------7-----------------------|----7-----------2---------------|
|----7---------------4-----------|--------------------------------|
|5-----------0---2-----------6---|7-------------------------------|
 
 A7      |       |       |        | D     |       F6  Faug| FM7b5  
|--------0-------0-------0-------|0-------2-----------------------|
|--------2-------2-------2-------|3-------3-------3---2---0-------|
|--------0-------0-------0-------|2-------2-------2---2---2-------|
|----2---------------------------|----------------3---3---3-------|
|0-------------------------------|--------------------------------|
|--------------------------------|--------------------------------|
 
 A6      |       |       |        F7b5    |       Eaug7   |        
|--------------------2-----------|------------------------0-------|
|----------------2---------------|--------0---------------1-------|
|------------2-------------------|--------2---------------1-------|
|----2h--4-----------------------|----1---------------0-----------|
|0-------------------------------|--------------------------------|
|--------------------------------|1---------------0---------------|
 
 A       |       F#m7    |        Bm7     |       E7      |        
|--------5---------------2-------|--------7-----------2---0-------|
|--------5---------------2-------|--------7-------3---------------|
|--------6---------------2-------|--------7-------4---------------|
|--------7-----------------------|----7-----------2---------------|
|----7---------------4-----------|--------------------------------|
|5-----------0---2-----------6---|7---------------------------0---|
 
 A       |       F#m7    |        Bm7     |       A7      |        
|--------5---------------2-------|--------7-----------2---0-------|
|--------5---------------2-------|--------7-------3---------------|
|--------6---------------2-------|--------7-------4---------------|
|--------7-----------------------|----7-----------2---------------|
|----7---------------4-----------|--------------------------------|
|5-----------0---2-----------6---|7-------------------------------|
 
 A7      |       |       |        | D     |       F6  Faug| FM7b5  
|--------0-------0-------0-------|0-------2-----------------------|
|--------2-------2-------2-------|3-------3-------3---2---0-------|
|--------0-------0-------0-------|2-------2-------2---2---2-------|
|----2---------------------------|----------------3---3---3-------|
|0-------------------------------|--------------------------------|
|--------------------------------|--------------------------------|
 
 A6      |       |       |        |       E7      |       |        
|--------------------2-----------|----------------5---------------|
|----------------2---------------|--------3-------5---------------|
|------------2-------------------|--------1-------6---------------|
|----2h--4-----------------------|--------2-------7---------------|
|0-------------------------------|--------2-------0---------------|
|--------------------------------|----------------5---------------|
 
 | F#m7  | A6    | Abaug7| Ab7    | Emaj7 |       |       |        
|5-------4---2---4-------4---4---|4-------4-----------------------|
|7-------2-------5-------4---4---|4-------4-------2---------------|
|6-------2-------5-------5---5---|1-------1-------1---------------|
|7-------2-------4-------4---4---|2-------2-------2---------------|
|--------------------------------|--------------------------------|
|--------------------------------|--------------------------------|
 
 | D     |       |       |        | A     |       |       |        
|2-------0-----------------------|0-------------------------------|
|3-----------3---2-------0-------|2-------------------------------|
|2-------------------------------|2-------------------------------|
|0-------------------------------|2-------------------------------|
|--------------------------------|0-------------------------------|
|--------------------------------|--------------------------------|
 
 D7      C#7     |       |        | F#m7  |       |       |        
|--------------------------------|2---------------2---------------|
|3-------2---0-------------------|2-------2-------2---------------|
|5-------4-------2-------1-------|2---4-----------2---------------|
|4-------3-----------------------|4---------------4---------------|
|5-------4-----------------------|--------------------------------|
|--------------------------------|--------------------------------|
 
 B7      |       |       |        | Bm7   |       | E7    |        
|--------2-------2---4---5-------|7---------------0---------------|
|4---5---------------------------|7---------------3---------------|
|2-------------------------------|7---------------1---------------|
|4-------------------------------|7---------------2---------------|
|2-------------------------------|----------------2---------------|
|--------------------------------|----------------0---------------|
 
 A       |       F#m7    |        Bm7     |       E7      |        
|--------5---------------2-------|--------7-----------2---0-------|
|--------5---------------2-------|--------7-------3---------------|
|--------6---------------2-------|--------7-------4---------------|
|--------7-----------------------|----7-----------2---------------|
|----7---------------4-----------|--------------------------------|
|5-----------0---2-----------6---|7---------------------------0---|
 
 A       |       F#m7    |        Bm7     |       A7      |        
|--------5---------------2-------|--------7-----------2---0-------|
|--------5---------------2-------|--------7-------3---------------|
|--------6---------------2-------|--------7-------4---------------|
|--------7-----------------------|----7-----------2---------------|
|----7---------------4-----------|--------------------------------|
|5-----------0---2-----------6---|7-------------------------------|
 
 A7      |       |       |        | D     |       F6  Faug| FM7b5  
|--------0-------0-------0-------|0-------2-----------------------|
|--------2-------2-------2-------|3-------3-------3---2---0-------|
|--------0-------0-------0-------|2-------2-------2---2---2-------|
|----2---------------------------|----------------3---3---3-------|
|0-------------------------------|--------------------------------|
|--------------------------------|--------------------------------|
 
 A6      |       |       |        E7      |       | A     |        
|--------------------2-----------|--------0-------5---------------|
|----------------2---------------|--------3-------5---------------|
|------------2-------------------|--------1-------6---------------|
|----2h--4-----------------------|--------2-------7---------------|
|0-------------------------------|--------2-------0---------------|
|--------------------------------|0-------------------------------|
 
 | F#m6  |       E13     |        | A     | Bb7   | A6    |        
|9-------9---------------9-------|5-------4-------2---------------|
|7-------7---------------9-------|5-------3-------2---------------|
|8-------8---------------7-------|6-------3-------2---------------|
|7-------7---------------6-------|7-------3-------2---------------|
|----------------7-------7-------|7-------------------------------|
|--------------------------------|--------------------------------|
 

Created with TablEdit for Mac - http://www.tabledit.com/
less
plus
Add to Songbook Print Version How to play lesson Submit videolesson
Click the best TAGS for this song:
None of them
Contributor: timsoxox Correct

If you can not find the chords or tabs you want, look at our partner E-chords. If you are a premium member, you have total access to our video lessons.

If you find a wrong Bad To Me from Frank Sinatra, click the correct button above.

login/signup
my songbooks
my recent views
my submits