S Frank Sinatra

The Way You Look Tonight bass

Frank Sinatra

Album:The Columbia Years - 1943 -1952 : The V-Discs

Year:1994

tools Ultimate Tabs

Start AutoScroll Font Size Down Font Size Up

Find us on Facebook

chords tabs
bass
ukulele keyboards
drums
flute
harmonica
guitar pro video
Ultimate-Tabs

The Way You Look Tonight

The Way You Look Tonight by Frank Sinatra
Tabbed by Norman

(intro)
G|-------|--------|-------|--------|-------|----------|-------|------|
D|-------|--------|-------|--------|-------|----------|-------|------|
A|6--6--6|------10|8--8--8|------58|6--6--6|------8h10|8--8--8|------|
E|-------|8--8----|-------|6--6----|-------|8--8------|-------|6--6--|


(verse one)
G|------|------|-------|------|------|------|-------|------|
D|------|------|-------|------|------|------|-------|------|
A|6--6--|------|8--8--8|------|------|3--3--|-------|1--1--|
E|------|8--8--|-------|6--6--|3--3--|------|01--1--|------|

G|----------|------|------|-------|------|--------|-----|------|
D|----------|------|------|-------|------|--------|-----|---8--|
A|5h8p6-----|6---6-|------|--1---8|6--6--|8-------|6----|-----8|
E|-------6--|---6-5|4--4-3|1----8-|----8-|---6---6|-87--|6-----|


(verse two)
G|------|--------|-------|------------|------------|------|------|---3---|
D|------|--------|------8|------------|------8-----|------|---3--|-------|
A|6--6--|------10|8--8---|11-10-8-----|8h10---10--6|------|------|1-----8|
E|------|8--8----|-------|--------8-10|------------|8--8--|1-----|-------|

G|------|--------|-------|-------|--------|------|--------|----------|
D|------|-------8|6------|---8-8-|------36|3-----|--------|-----8-6--|
A|6-----|6----6--|---10-9|8---6-5|6--3----|---6--|6-------|---------6|
E|---6--|---6----|-------|-------|--------|----6-|--8-7-6-|6-6-------|


(bridge)
G|----6---|--------|--------|----6---|--------|--------|--------|----3-6-|
D|--8-----|4-4-5-5-|6-6---6-|--6-----|8-8---8-|7-7---7-|6-6--4--|--------|
A|9-----4-|--------|-----6-6|4-------|--------|--------|----6-6-|4-4-----|
E|--------|--------|--------|------6-|----6---|----5---|--------|--------|

G|--------|--------|--------|------66|--------|--6-3---|--------|3-3/-----|
D|8-8---8-|7-7---7-|6-6--6--|--3-6---|4-4-----|4-----4-|3-3-3---|---------|
A|--------|--------|----6--6|4-------|----4-4-|--------|------1-|-----1-1-|
E|----6---|----5---|--------|--------|--------|--------|--------|---------|


(verse three)
G|-------|-------|------|-------|-------|--------|-------|-------|
D|-------|-------|------|-------|-------|-------5|-------|-------|
A|86--6--|-----10|8--8--|-------|------5|3--3--7-|8--8-6-|8-----8|
E|-------|8--8---|------|6--6--4|3--3---|--------|-------|---6---|

G|--------|-------|------|-------|---------|--------|
D|--------|-------|------|-------|----8-8--|--5-8-5-|
A|6--6---8|6--66--|------|---1--4|6-6-----4|6-------|
E|----6---|------5|4--4-3|1------|---------|--------|


(instrumental)
G|--------|--3-----|--------|----6---|--------|----------|----------|----------|
D|4-4-----|4---6-5-|6-6--6--|--6---6-|8-8-----|8-8-x-7-7-|6-6-------|-----11---|
A|----4-6-|--------|----6-6-|4-------|------6-|----------|----8-11--|--11------|
E|--------|--------|--------|--------|----6---|----------|--------9-|9-------9-|


(verse four)
G|--------|--------|--------|---------|--3-6----|----6---|----2----|--------|
D|8-8---8-|7-------|6-6-----|----3-66-|4------46|4-4---4-|3-3--3-3-|8-------|
A|----8---|--7---7-|----8-8-|4-4------|---------|--------|---------|--6-7-7-|
E|--------|----5---|--------|---------|---------|--------|---------|--------|


(key change chorus)
G|---------|------6-|----6---|4-----4--|---------|-------6|--------|--------|
D|----9----|----3---|4-4---4-|--4------|46-6--6--|----3-6-|4-4---4-|--------|
A|7-7---7-7|4-4-----|--------|----2----|-----6-6-|4-4-----|----4---|2-2-2-2-|
E|---------|--------|--------}---------|---------|--------|--------|--------|

G|--------|--------|---2---|------|-------|--------|-------|------|------|------|------|--------|
D|2-2-----|--------|-----4-|------|------6|4------2|---2---|4-----|------|------|------|--------|
A|----2-2-|1-1-1-1-|0------|4--2--|---4---|---42---|----4--|---2--|------|------|------|7-------|
E|--------|--------|-------|------|0------|--------|0------|------|5---4-|5--7--|------|--------|
less
plus
Add to Songbook Print Version How to play lesson Submit videolesson
Click the best TAGS for this song:
None of them
Contributor: ..::jjbb Correct

If you can not find the chords or tabs you want, look at our partner E-chords. If you are a premium member, you have total access to our video lessons.

If you find a wrong Bad To Me from Frank Sinatra, click the correct button above.

login/signup
my songbooks
my recent views
my submits