Frankie Valli

Can`t take my eyes off You bass

Frankie Valli

tools Ultimate Tabs

Start AutoScroll Font Size Down Font Size Up

Find us on Facebook

chords tabs
bass
ukulele keyboards
drums
flute
harmonica
guitar pro
video
Ultimate-Tabs

Can`t take my eyes off You

-------------------------------------------------------------------------------
                 Can't Take Me Eyes Off You - Frankie Valli
-------------------------------------------------------------------------------
Tabbed by: CorporalCrunch
Tuning: Standard


Intro
G|--------------------------|--------------------|------------------|-----------|
D|-2--2-2---2--2-2---2--2-2-|-2-2--2-2--2-2--2-2-|--2--2-2---2--2-2-|-2-2--2-2--|
A|--------------------------|--------------------|------------------|-----------|
E|--------------------------|--------------------|------------------|-----------|


Verse 1: "you're just too good to be true..."
G|-----|---2-|-2-2-|-----|-----|
D|-2-2-|-----|-----|---2-|-2-2-|
A|-----|-2---|-----|-2---|-----|
E|-----|-----|-----|-----|-----|
   x12          x7         x12
"Pardon the way that I stare..."
G|-----|---2-|-2-2-|-----|-----|
D|-2-2-|-----|-----|---2-|-2-2-|
A|-----|-2---|-----|-2---|-----|
E|-----|-----|-----|-----|-----|
   x12          x7         x12


Pre-Chorus Instrumentation: 
G|-----------------------------------------------------------------------------|
D|---4--4-4--4-----------2--2-2---2-2---2-2----4--4-4--4-----------2--2-2----2-|
A|-4-----------2--2-2--2---------------------4-----------2--2-2--2---------4---|
E|-----------------------------------------------------------------------------|


Chorus: "I Love you baby..."                                 
G|--------------4-4---4-4--4-----------------------------------------------------------------------|
D|4-4----4-4--4-----4--------6-6----6-6-----------------4-4----4-4------------------2-2----2-2-----|
A|-----4--------------------------6-----6-4-4----4-4--4------4------4-2-2----2-2---------2--------4|
E|---------------------------------------------4---------------------------2------2-------------4--|
"'Oh Pretty Baby..."                                    "Let me love you baby..."
G|---------------4-4----4-4--4--------------------------|---------------------|
D|-4-4----4-4--4------4--------6-6----6-6---------------|-4--4--4--4--4--4----|
A|------4---------------------------6------6-4-4----4-4-|-------------------5-|
E|------------------------------------------------4-----|---------------------|


Verse 2: "you're just too good to be true..."
G|---|-----|---5-|-5-5-|-----|-----|
D|-5-|-5-5-|-----|-----|---5-|-5-5-|
A|---|-----|-5---|-----|-5---|-----|
E|---|-----|-----|-----|-----|-----|
       x11          x7         x11


Pre-Chorus Instrumentation: 
G|---------------------------------|
D|-4--4-4--4-----------2--2-2--2---|
A|-----------2--2-2--2-----------4-|
E|---------------------------------|


Final Chorus: "I Love you baby..."                                 
G|--------------4-4---4-4--4-----------------------------------------------------------------------|
D|4-4----4-4--4-----4--------6-6----6-6-----------------4-4----4-4------------------2-2----2-2-----|
A|-----4--------------------------6-----6-4-4----4-4--4------4------4-2-2----2-2---------2--------4|
E|---------------------------------------------4---------------------------2------2-------------4--|
"'Oh Pretty Baby..."    *FADE*
G|---------------4-4----4-4--4------------|
D|-4-4----4-4--4------4--------6-6----6-6-|
A|------4---------------------------6-----|
E|----------------------------------------|

===============================================================================
less
plus
Add to Songbook Print Version How to play lesson Submit videolesson
Click the best TAGS for this song:
None of them
Contributor: ashiEthi Correct

If you can not find the chords or tabs you want, look at our partner E-chords. If you are a premium member, you have total access to our video lessons.

If you find a wrong Bad To Me from Frankie Valli, click the correct button above.

login/signup
my songbooks
my recent views
my submits