Franz Ferdinand

What She Came For chords

Franz Ferdinand

tools Ultimate Tabs

Start AutoScroll Font Size Down Font Size Up

Find us on Facebook

chords
tabs
bass ukulele keyboards
drums
flute
harmonica
guitar pro
video
Ultimate-Tabs

What She Came For

Franz Ferdinand - What She Came For 


MAIN RIFF

e|---------------------------------------------------------------------------|
B|---------------------------------------------------------------------------|
G|---------------------------------------------------------------------------|
D|---------------------------------------------------------------------------|
A|-5-5-5-5-5-5-5-5-4-3-3-3-3-3-3---------------------------------------------|
E|-------------------------------2-3-3-3-3-3-3-5-3-3-3-3-3-3-----------------|


VERSE ( With MAIN RIFF on bass )

Dm                       C                G
I got a question for you i got a question where'd ya get your name from ,where dya 
get your name from?

Dm                      C                             G
I got a question for you where do you see yourself in 5 minutes time?

this riff is played on the synth over this bit

e|---------------------------------------------------------------------------|
B|----6--------6-------------------------------------------------------------|
G|--------7------------5------------------------------------------------------|
D|-----------------7---------------------------------------------------------|
A|---------------------------------------------------------------------------|
E|---------------------------------------------------------------------------|


Dm                     C                    G
With a laugh like that, or a look like that you make us all feel gauche like its a smutty joke


Dm                      C                         G
With a laugh like that, with a look like like that you make us all just go LA LA LA LAA

CHORUS

Dm                                 F                           Am
Oh oh, look out youre what she came for youre what she came for no question, no doubt
X4

e|----------------------------------------------------------------------------------|
B|----------------------------------------------------------------------------------|
G|------7-5----5--------------------------------------------------------------------|
D|----------7-----7-5-7-5-----------------------------------------------------------|
A|-5-5---------------------7--------------------------------------------------------|
E|----------------------------------------------------------------------------------|
x8
MAIN RIFF
VERSE
Ive got a question for you, another question for you how do you feel the, how do 
you feel the pressure?
Why you wearing what your wearing where will your live begone in 5 minutes time?
So say something stupid you know that youd love tooooo

CHORUS

INTERLUDE

C                      G                         Dm
Youre what she came for Youre what she came for

Hard on Dm

OUTRO (Under the stage song)

Dm F Am Dm F Am Bb 
F G Dm

i think thats pretty accurate but feel free to correct me
less
plus
Add to Songbook Print Version How to play lesson Submit videolesson
Click the best TAGS for this song:
None of them
Contributor: bubustin Correct

If you can not find the chords or tabs you want, look at our partner E-chords. If you are a premium member, you have total access to our video lessons.

If you find a wrong Bad To Me from Franz Ferdinand, click the correct button above.

login/signup
my songbooks
my recent views
my submits