Gary Moore

Parisienne Walkways tab

Gary Moore

Album:Mid-Price: Blues Alive

Year:1993

tools Ultimate Tabs

Start AutoScroll Font Size Down Font Size Up

Find us on Facebook

chords
tabs
bass ukulele keyboards
drums
flute
harmonica
guitar pro video
Ultimate-Tabs

Parisienne Walkways

 
Intro 
---------------------b---------------------------12---b---------b-------- 
-------------------15(17)---15-13-12----------------13(15)----13(15)--13- 
---------------------------------------14-12-10-------------------------- 
--------------------------------------x---------------------------------- 
-12/s--7/s--------------------------------------------------------------- 
------------8/s---------------------------------------------------------- 
 
-------------------------------------------b----------------------------- 
-12--------h--p-----------15-13---10-12-12(13)---12-10-------------13-12- 
----14---12-14-12--------------------------------------12--10-9---------- 
------------------12-14-----------------------------------------12------- 
------------------------------------------------------------------------- 
------------------------------------------------------------------------- 
 
--------------------------------------------------- 
----b---------------------------------------------- 
-14(16)---14-13------------------------------------ 
----------------15---14-12-10---------------------- 
--------------------------------12/s---7/s--------- 
---------------------------------------------8/s--- 
 
Verse 1(?Verse 2? is actually played live, but this sounds better) 
---------------------b---------------------------12---b---------b-------- 
-------------------15(17)---15-13-12----------------13(15)----13(15)--13- 
---------------------------------------14-12-10-------------------------- 
--------------------------------------x---------------------------------- 
-12/s--7/s--------------------------------------------------------------- 
------------8/s---------------------------------------------------------- 
 
-------------------------------------------b----------------------------- 
-12--------h--p-----------15-13---10-12-12(13)---12-10-------------13-12- 
----14---12-14-12--------------------------------------12--10-9---------- 
------------------12-14-----------------------------------------12------- 
------------------------------------------------------------------------- 
------------------------------------------------------------------------- 
 
---------- 
---------- 
-13-14~--- 
---------- 
---------- 
---------- 
 
Interlude 
--------------b-------b---------------------b---------------b-------b---- 
-14-15-17--18(20)--18(20)---18-18---12-13-13(15)--18-18---15(17)--15(17)- 
------------------------------------------------------------------------- 
------------------------------------------------------------------------- 
------------------------------------------------------------------------- 
------------------------------------------------------------------------- 
 
-------------b-------b-----------------------------b------b-------------- 
----12-13--15(17)--15(17)---15--15------------12-13(15)-13(15)----------- 
-14-------------------------------------13-14---------------------------- 
--------------------------------------14--------------------------------- 
------------------------------------------------------------------------- 
------------------------------------------------------------------------- 
 
------------------------------------------------------------------------- 
-12-12-13-12-10-12-10---10----------------------------------------------- 
----------------------12--12-10-12-10---12-10--10------------------------ 
-------------------------------------12------12--12-10-12-10--10--------- 
------------------------------------------------------------12--12-10-12- 
------------------------------------------------------------------------- 
 
Verse 2 
-------0-----------0-----------1-----------1-----------1-----------1----- 
---------1-----------1-------1---1-------1---1-------1---1-------1---1--- 
-----2-----2-----2-----2---2-------2---2-------2---2-------1---2-------1- 
---2-----------2---------0-----------0----------------------------------- 
-0-----------0----------------------------------------------------------- 
-------------------------------------------------3-----------3----------- 
 
-------0-----------0-----------1-----------1-----------1-----------0----- 
---------1-----------0-------1---1-------1---1-------3---3-------0---0--- 
-----0-----0-----0-----0---2-------2---2-------2---2-------2---1-------1- 
---2-----------2---------3-----------3-----------0-----------2----------- 
-3-----------3----------------------------------------------------------- 
------------------------------------------------------------------------- 
 
-----------------------2---- 
-------2-----------3-----2-- 
-----2---2-----2-----4---2-- 
---2-------2-4---4-------2-- 
-0-------------------------- 
---------------------------- 
 
Outro Solo            
-----------------b-------------------------------------- 
---------------15(17)-----(prolonged with Delay Peddle)- 
-------------------------------------------------------- 
-------------------------------------------------------- 
-------------------------------------------------------- 
-------------------------------------------------------- 
 
---------------------12-13--12-----b------------------------------------- 
-15-13-12-----------------15-----13(15)---13-12--------------------15-13- 
-----------14-12-------------------------------14--12---s--s--s---------- 
----------x------15----------------------------------12-/14/12/14-------- 
------------------------------------------------------------------------- 
------------------------------------------------------------------------- 
 
------------------------------------------------------------------------- 
---10-12-13--12-------------h--p-----13-12---------------12-------------- 
-12-------------14-12---10-9-10-9-----------13-14---12-14--12------------ 
----------------------------------12-------------------------14---------- 
------------------------------------------------------------------------- 
------------------------------------------------------------------------- 
 
------------------------------------------ 
-----5-----------12------------------5---- 
-5-7--5-----12-14--12---s--s-----5-7--5--- 
-------7--------------14/17/14---------7-- 
------------------------------------------ 
------------------------------------------ 
 
E-------------------------------------------------------------------- 
B-------------------------------------------------------------------- 
G-------------------------------1312-------------12-12b-12-12-13-15b~ 
D-----------------------------12-----14-12-14-14--------------------- 
A-6-8-99~-9-10-1212~-13-14~-14--------------------------------------- 
E-------------------------------------------------------------------- 
                                                                   x7 
E-----------------------------------------------------*-----------*-- 
B-17-20-17h20p17-------------------------20p17h20~-20b-----17h20p17-- 
G----------------19p17h19--------17h19p17-------------19-21---------- 
D------------------------19h17p19------------------------------------ 
A-------------------------------------------------------------------- 
E-------------------------------------------------------------------- 
                      
 
 
                                  x4 
E------------*-------------------*----------------------------------- 
B---17h20p17---17h20p17---17h22p17---20-17---17---------------------- 
G-19---------19---------19-----------------19--19-17-19-17--17------- 
D---------------------------------------------------------19--19-17-- 
A-------------------------------------------------------------------- 
E-------------------------------------------------------------------- 
 
E-------------------17-19b~-----17-20b~-17--------------------------- 
B-----------20-17-20-------17-20-----------20-17-20-17----17--------- 
G------------------------------------------------------19----19-17-19 
D-19-17-15~---------------------------------------------------------- 
A-------------------------------------------------------------------- 
E-------------------------------------------------------------------- 
                                                            x8 
E----------------------------------------------*-----------*----20b~- 
B----------------20-17-20b~--20bp17--17-20-20b-20bp17--17-20--------- 
G-17----17-19-17-------------------19----------------19-------------- 
D----19-------------------------------------------------------------- 
A-------------------------------------------------------------------- 
E-------------------------------------------------------------------- 
 
E-----------#-------------14b-12------17b-15------19b-17------------- 
B-21b-srtp-s0?14b-13------------15-13-------18-16-------20-18-16-13~- 
G-------------------15-12-------------------------------------------- 
D-------------------------------------------------------------------- 
A-------------------------------------------------------------------- 
E-------------------------------------------------------------------- 
 
E-------------------------------12----------12-10-12-10---10--------- 
B-10-12-14-16-12~-------12-13-12?-13~--13-15------------12--12-10-12- 
G------------------12-14--------------------------------------------- 
D-------------------------------------------------------------------- 
A-------------------------------------------------------------------- 
E-------------------------------------------------------------------- 
 
E-------------------------------------------------------------------- 
B-10----10----------------------------------------------------------- 
G----12----12-10-12-10--10-12~---9-10-12--12-14-10----------------20b 
D---------------------12-------12------------------17-14-19-21-18---- 
A-------------------------------------------------------------------- 
E-------------------------------------------------------------------- 
 
E-------------------------------------------------------------------- 
B-20s0-20b~-20-17--14-20--------------------------------------------- 
G----------------19------14-15-12-12s14~-12~-14~-10h12p10------------ 
D--------------------------------------------------------10-12-10s12~ 
A-------------------------------------------------------------------- 
E-------------------------------------------------------------------- 
 
E---------------17s0------------------------------------------------- 
B-------------------------------------------------------------------- 
G-------------------------------------------------------------------- 
D--10-7-5~-5-7~------------------------------------------------------ 
A-------------------------------------------------------------------- 
E-------------------------------------------------------------------- 
Lyrics 
 
I remember Paris in '49. 
The Champs Elysée, San Michelle 
And old Beaujolais wine. 
And I recall that you were mine 
In those Parisienne days. 
 
Looking back at the photographs. 
Those summer days spent outside corner cafes. 
Oh, I could write you paragraphs, 
About my old Parisienne days. 
B = bend 
R = release 
S = Slide 
~ = Vibrato 
Srtp = Slow release tremolo picking 
# = Slide slowly down fretboard one fret at a time while tremolo picking 
* * = Repeat portions inside stars the correct amount of times 
 
 
_______________________________________________________ 
Contribuição: Eric Z([email protected]) 
 
less
plus
Add to Songbook Print Version How to play lesson Submit videolesson
Click the best TAGS for this song:
None of them
Contributor: Drummusi Correct

If you can not find the chords or tabs you want, look at our partner E-chords. If you are a premium member, you have total access to our video lessons.

If you find a wrong Bad To Me from Gary Moore, click the correct button above.

login/signup
my songbooks
my recent views
my submits