Gary Moore

The Loner bass

Gary Moore

tools Ultimate Tabs

Start AutoScroll Font Size Down Font Size Up

Find us on Facebook

chords
tabs
bass
ukulele
keyboards
drums
flute
harmonica
guitar pro video
Ultimate-Tabs

The Loner

THE LOONER 

Bass tab
Tuning  E,A,D,G.
From Doggo



G|----------------------------------|
D|----------------------------------|
A|----------------------------------|
E|-3--3--3-3--1-----3--3--3-3-------|

G|-------------------|-----------------------|-----------------------|-----------------------|
D|-------------------|-----------------------|-----------------------|-----------------------|
A|------3---------1--|-6--6-3---3-1--------5-|-6--6-3----------------|--6--6-3---------------| 
E|-3--3------1--1----|--------------5--5-6---|--------1--1-2-3--3-0--|---------1--1-2-3----3-|

G|-------------------|-----------------------|------------------------|-----------------------|
D|-------------------|-----------------------|------------------------|-----------------------|
A|------3---------1--|-6--6-3---3-1--------5-|-6--6-3--------5--5---1-|-6--6-3---3-1--------5-| 
E|-3--3------1--1----|--------------5--5-6---|--------1--1-2------3---|--------------5--5-6---|

G|-----------------------|-----------------------|--------------------|
D|-----------------------|-----------------------|--------------------|
A|-6--6-3----------------|-6--6-3----------------|--------------------|
E|--------1--1-2-3---3-0-|--------1--1-2-3-------|-3-3--3-3--1-1------|

G|-------------------|-----------------------|--------------------|------------------------|
D|-------------------|-----------------------|--------------------|------------------------|
A|-1--1------------5-|-6--6-1--3--3-5-6------|-1--1-------------5-|-6--6-5-3---1-----1-3-5-|
E|------1---3--3-4---|------------------1--1-|------5--5-3--3-4---|--------------5---------|


G|-----------------------|----------------------|------------------------|-----------------|
D|-----------------------|----------------------|------------------------|-----------------|
A|-6--6-6--6-------------|-5--5-5-3-1-------1-1-|-6--6-6-5-3--3--3-3-1---|------------5--5-|
E|-----------1--1-1--3-5-|-------------3-3------|----------------------5-|-5--5-5-6-5------|


G|-----------------------|-----------------------|-----------------------|----------------|
D|-----------------------|-----------------------|-----------------------|----------------|
A|-6--6-3----------------|-6--6-3----------------|-6--6-3----------------|-6---5----------|
E|--------1--1-2-3---3-0-|--------1--1-2-3-----3-|--------1--1-2-3---3-0-|----------------|


G|--------------------|--------------------------|
D|--------------------|--------------------------|
A|--------------------|-----6--6-6--6------------|
E|-3--3-3--3-1-3--3-3-|-3-1-----------1-3--3-3--1|


G|--------------------------|--------------------------|--------------------------|
D|--------------------------|--------------------------|--------------------------|
A|-6--6------5-----5--------|-6--6------5-----5--------|-6--6------5-----5--------| 
E|------3-1-----3----1-3--1-|------3-1-----3----1-3--1-|------3-1-----3----1-3--1-|


G|--------------------------|--------------------------|--------------------------|
D|--------------------------|--------------------------|--------------------------|
A|-6--6------5-----5--------|-6--6------5-----5--------|-6--6------5-----5--------|
E|------3-1-----3----1-3--1-|------3-1-----3----1-3--1-|------3-1-----3----1-3--1-|
less
plus
Add to Songbook Print Version How to play lesson Submit videolesson
Click the best TAGS for this song:
None of them
Contributor: engeejbo Correct

If you can not find the chords or tabs you want, look at our partner E-chords. If you are a premium member, you have total access to our video lessons.

If you find a wrong Bad To Me from Gary Moore, click the correct button above.

login/signup
my songbooks
my recent views
my submits