General Elektriks

Different Blue bass

General Elektriks

chords
tabs
bass
ukulele
keyboards
drums
flute
harmonica
guitar pro
video
Ultimate-Tabs

Different Blue

Intro

G|------------------------------|
D|--3--5-5-5-5---3--3--5-5-5-5--|
A|------------------------------| x4
E|------------------------------|


Verse 1

8 bars without bass, then:

G|------------------------------|
D|--3--5-5-5-5---3--3--5-5-5-5--|
A|------------------------------| x2
E|------------------------------|

8 bars without bass, then:


Chorus

G|-----------------------------------------------------------------|
D|-----------------------------------------------------------------|
A|--3-3-4-1---3---3-3-3-4---3-3-4---3-3-4-1---3---3-3-3-4---3-3-4--|
E|-----------------------------------------------------------------|

G|-------------------------------------------------------------|
D|-------------------------------------------------------------|
A|-------------------------------------------------------------|
E|--1-1-3-3-3-3---1--1--3-3-3-3---1-1-3-3-3-3---1--1--3-3-3-3--|

G|-----------------------------------------------------------------|
D|-----------------------------------------------------------------|
A|--3-3-4-1---3---3-3-3-4---3-3-4---3-3-4-1---3---3-3-3-4---3-3-4--|
E|-----------------------------------------------------------------|

G|-------------------------------------------------------------|
D|-------------------------------------------------------------|
A|-------------------------------------------------------------|
E|--1-1-3-3-3-3---1--1--3-3-3-3---1-1-3-3-3-3---1--1--3-3-3-3--|


Verse 2

8 bars without bass, then:

G|-----------------------------------------------------------|
D|-----------------------------------------------------------|
A|-----------------------------------------------------------|
E|--1--3-3-3-3---1--1--3-3-3-3---1--3-3-3-3---1--1--3-3-3-3--|

8 bars without bass, then:


Chorus

G|-----------------------------------------------------------------|
D|-----------------------------------------------------------------|
A|--3-3-4-1---3---3-3-3-4---3-3-4---3-3-4-1---3---3-3-3-4---3-3-4--|
E|-----------------------------------------------------------------|

G|-------------------------------------------------------------|
D|-------------------------------------------------------------|
A|-------------------------------------------------------------|
E|--1-1-3-3-3-3---1--1--3-3-3-3---1-1-3-3-3-3---1--1--3-3-3-3--|

G|-----------------------------------------------------------------|
D|-----------------------------------------------------------------|
A|--3-3-4-1---3---3-3-3-4---3-3-4---3-3-4-1---3---3-3-3-4---3-3-4--|
E|-----------------------------------------------------------------|

G|-------------------------------------------------------------|
D|-------------------------------------------------------------|
A|-------------------------------------------------------------|
E|--1-1-3-3-3-3---1--1--3-3-3-3---1-1-3-3-3-3---1--1--3-3-3-3--|


Bridge

G|----------------------------------|
D|----------------------------------|
A|--2---3---4---5---6---7---8---9---|
E|----------------------------------|

G|-------------------------------------------------------------|
D|-------------------------------------------------------------|
A|-------------------------------------------------------------|
E|--1-1-3-3-3-3---1--1--3-3-3-3---1-1-3-3-3-3---1--1--3-3-3-3--|

G|----------------------------------|
D|----------------------------------|
A|--2---3---4---5---6---7---8---9---|
E|----------------------------------|

G|-------------------------------------------------------------|
D|-------------------------------------------------------------|
A|-------------------------------------------------------------| x2
E|--1-1-3-3-3-3---1--1--3-3-3-3---1-1-3-3-3-3---1--1--3-3-3-3--|


Outro

G|-----------------------------------------------------------------|
D|-----------------------------------------------------------------|
A|--3-3-4-1---3---3-3-3-4---3-3-4---3-3-4-1---3---3-3-3-4---3-3-4--|
E|-----------------------------------------------------------------|

G|-------------------------------------------------------------|
D|-------------------------------------------------------------|
A|-------------------------------------------------------------|
E|--1-1-3-3-3-3---1--1--3-3-3-3---1-1-3-3-3-3---1--1--3-3-3-3--|

G|-----------------------------------------------------------------|
D|-----------------------------------------------------------------|
A|--3-3-4-1---3---3-3-3-4---3-3-4---3-3-4-1---3---3-3-3-4---3-3-4--|
E|-----------------------------------------------------------------|

G|-------------------------------------------------------------|
D|-------------------------------------------------------------|
A|-------------------------------------------------------------|
E|--1-1-3-3-3-3---1--1--3-3-3-3---1-1-3-3-3-3---1--1--3-3-3-3--|

G|-----------------------------------------------------------------|
D|-----------------------------------------------------------------|
A|--3-3-4-1---3---3-3-3-4---3-3-4---3-3-4-1---3---3-3-3-4---3-3-4--|
E|-----------------------------------------------------------------|

G|-------------------------------------------------------------|
D|-------------------------------------------------------------|
A|-------------------------------------------------------------|
E|--1-1-3-3-3-3---1--1--3-3-3-3---1-1-3-3-3-3---1--1--3-3-3-3--|

G|-----------------------------------------------------------------|
D|-----------------------------------------------------------------|
A|--3-3-4-1---3---3-3-3-4---3-3-4---3-3-4-1---3---3-3-3-4---3-3-4--|
E|-----------------------------------------------------------------|

less
plus
Add to Songbook Print Version How to play lesson Submit videolesson
Click the best TAGS for this song:
None of them
Contributor: Anonymous Correct

If you can not find the chords or tabs you want, look at our partner E-chords. If you are a premium member, you have total access to our video lessons.

If you find a wrong Bad To Me from General Elektriks, click the correct button above.

login/signup
my songbooks
my recent views
my submits