S George Harrison

Thats What It Takes bass

George Harrison

tools Ultimate Tabs

Start AutoScroll Font Size Down Font Size Up

Find us on Facebook

chords
tabs
bass
ukulele keyboards
drums
flute
harmonica
guitar pro
video
Ultimate-Tabs

Thats What It Takes

THATíS WHAT IT TAKES


George Harrison
Cloud Nine (1987)


VERSE

  00:09

  t=106
G|---------------------------------|---------------------------------|
D|---------------------------------|---------------------------------|
A|---------------------------------|---------------------------------|
E|-3---------------3---3-------3---|-5---------------5---5-------5---|



G|---------------------------------|---------------------------------|
D|---------------------------------|---------------------------------|
A|---------------------------------|-3-----------3---2---2-------2---|
E|-5---------------5---5-------5---|---------------------------------|



G|---------------------------------|---------------------------------|
D|---------------------------------|---------------------------------|
A|-------------7---5---5-------5---|-4-----------4---3---3-------3---|
E|-0-------------------------------|---------------------------------|



G|---------------------------------|---------------------------------|
D|-3-----------3---2---2-------2---|---------------------------------|
A|---------------------------------|-5-----------5---5---5-------5---|
E|---------------------------------|---------------------------------|



VERSE

  00:29

G|---------------------------------|---------------------------------|
D|---------------------------------|---------------------------------|
A|---------------------------------|---------------------------------|
E|-3-----------3---3---3-------3---|-5---------------5---5-------0---|



G|---------------------------------|---------------------------------|
D|---------------------------------|---------------------------------|
A|---------------------------------|-3-----------3---2---2-------2---|
E|-5---------------5---5-------5---|---------------------------------|



G|---------------------------------|---------------------------------|
D|---------------------------------|---------------------------------|
A|-------------7---5-----------5---|-4-----------4---3---3-------3---|
E|-0-------------------------------|---------------------------------|



G|---------------------------------|---------------------------------|
D|-3-----------3-------------------|-5-------------------------------|
A|-----------------5---5-------5---|---------------------------------|
E|---------------------------------|-----3-------3---3---3-------3---|



BRIDGE

  00:48

G|---------------------------------|---------------------------------|
D|---------------------------------|---------------------------------|
A|-4-----------6-------------------|-------------8-------------------|
E|---------------------------------|-6-------------------------------|



G|---------------------------------|---------------------------------|
D|---------------------------------|---------------------------------|
A|-3-----------6-------------------|-------------4-------------------|
E|---------------------------------|-4-------------------------------|



G|---------------------------------|---------------------------------|
D|---------------------------------|---------------------------------|
A|-4-----------6-------------------|-------------8-------------------|
E|---------------------------------|-6-------------------------------|



G|---------------------------------|---------------------------------|
D|---------------------------------|---------------------------------|
A|-3-----------6-------------------|-------------4-------------------|
E|---------------------------------|-4-------------------------------|



CHORUS

  01:08

G|---------------------------------|---------------------------------|
D|---------------------------------|---------------------------------|
A|---------------------------------|---------------------------------|
E|-1-----------3-------------------|-0-----------1-------------------|



G|---------------------------------|---------------------------------|
D|---------------------------------|---------------------------------|
A|---------------------------------|---------------------------------|
E|-0-----------1---------------1---|-3-----------5---------------5-3-|



G|---------------------------------|---------------------------------|
D|---------------------------------|---------------------------------|
A|---------------------------------|---------------------------------|
E|-1-----------3-------------------|-0-----------1-------------------|



G|---------------------------------|---------------------------------|
D|---------------------------------|---------------------------------|
A|---------------------------------|---------------------------------|
E|-0---0-------1-------------------|-3-----------5-------------------|



G|-----------------|
D|-----------------|
A|-----------------|
E|-5---5-------5---|



GUITAR SOLO

  01:29

G|---------------------------------|---------------------------------|
D|---------------------------------|---------------------------------|
A|---------------------------------|---------------------------------|
E|-3---------------3---3-------3---|-5-----------5---5---------------|



G|---------------------------------|---------------------------------|
D|---------------------------------|---------------------------------|
A|---------------------------------|-3-----------3---2---2-------2---|
E|-5---------------5---5-----5-3-5-|---------------------------------|



G|---------------------------------|---------------------------------|
D|---------------------------------|---------------------------------|
A|-------------7---5---5-------5---|-4-----------4---3---3-------3---|
E|-0-------------------------------|---------------------------------|



G|---------------------------------|---------------------------------|
D|-3-----------3---2---2-------2---|---------------------------------|
A|---------------------------------|-5-----------5---5---5-------5---|
E|---------------------------------|---------------------------------|



VERSE

  01:48

G|---------------------------------|---------------------------------|
D|---------------------------------|---------------------------------|
A|---------------------------------|---------------------------------|
E|-3-----------3---3---3-------3---|-5-----------5---5---5-------0---|



G|---------------------------------|---------------------------------|
D|---------------------------------|-------------------------4-2-0---|
A|---------------------------------|-3-----------3---2---2-----------|
E|-5---5-------5---5---5-------5---|---------------------------------|



G|---------------------------------|---------------------------------|
D|---------------------------------|---------------------------------|
A|-------------7---5---5-------5---|-4-----------4-5-3---3-------3---|
E|-0-------------------------------|---------------------------------|



G|---------------------------------|---------------------------------|
D|-3-----------3-------------------|-5---------------5---------------|
A|-----------------5---5-------5---|-------------5-------------------|
E|---------------------------------|-----3---------------3-------3---|



BRIDGE

  02:08

G|---------------------------------|---------------------------------|
D|---------------------------------|---------------------------------|
A|-4-----------6-------------------|-------------8-------------------|
E|---------------------------------|-6-------------------------------|



G|---------------------------------|---------------------------------|
D|---------------------------------|---------------------------------|
A|-3-----------6-------------------|-------------4-------------------|
E|---------------------------------|-4-------------------------------|



G|---------------------------------|---------------------------------|
D|---------------------------------|---------------------------------|
A|-4-----------6-------------------|-------------8-------------------|
E|---------------------------------|-6-------------------------------|



G|---------------------------------|---------------------------------|
D|---------------------------------|---------------------------------|
A|-3-----------6-------------------|-------------4-------------------|
E|---------------------------------|-4-------------------------------|



CHORUS

  02:27

G|---------------------------------|---------------------------------|
D|---------------------------------|---------------------------------|
A|---------------------------------|---------------------------------|
E|-1-----------3-------------------|-0-----------1-------------------|



G|---------------------------------|---------------------------------|
D|---------------------------------|---------------------------------|
A|---------------------------------|---------------------------------|
E|-0-----------1---------------1---|-3-----------5---------------5-3-|



G|---------------------------------|---------------------------------|
D|---------------------------------|---------------------------------|
A|---------------------------------|---------------------------------|
E|-1-----------3-------------------|-0-----------1-------------------|



G|---------------------------------|---------------------------------|
D|---------------------------------|---------------------------------|
A|---------------------------------|---------------------------------|
E|-0---0-------1-------------------|-3---3-------5-------------------|



G|-----------------|
D|-----------------|
A|-----------------|
E|-5---5-------3---|



OUTRO

  02:49

G|---------------------------------|---------------------------------|
D|---------------------------------|---------------------------------|
A|---------------------------------|---------------------------------|
E|-1-----------3---------------3-1-|-0-----------1-------------------|



G|---------------------------------|---------------------------------|
D|---------------------------------|---------------------------------|
A|---------------------------------|---------------------------------|
E|-0---0-------1---------------1---|-3-----------5---------------5-3-|



G|---------------------------------|---------------------------------|
D|---------------------------------|---------------------------------|
A|---------------------------------|---------------------------------|
E|-1-----------3-------------------|-0-----------1-------------------|



G|---------------------------------|---------------------------------|
D|---------------------------------|---------------------------------|
A|---------------------------------|---------------------------------|
E|-0-----------1-------------------|-3---3-------5---------------5-3-|


  03:08

G|---------------------------------|---------------------------------|
D|---------------------------------|---------------------------------|
A|---------------------------------|---------------------------------|
E|-1-----------3-------------------|-0-----------1-------------------|



G|---------------------------------|---------------------------------|
D|---------------------------------|---------------------------------|
A|---------------------------------|---------------------------------|
E|-0---0-------1---------------1---|-3---3-------5---------------5-3-|



G|---------------------------------|---------------------------------|
D|---------------------------------|---------------------------------|
A|---------------------------------|---------------------------------|
E|-1-----------3-------------------|-0-----------1-------------------|



G|---------------------------------|---------------------------------|
D|---------------------------------|---------------------------------|
A|---------------------------------|---------------------------------|
E|-0---0-------1---------------1---|-3-----------5---------------5-3-|


  03:28

G|---------------------------------|---------------------------------|
D|---------------------------------|---------------------------------|
A|---------------------------------|---------------------------------|
E|-1-----------3-------------------|-0-----------1-------------------|



G|---------------------------------|---------------------------------|
D|---------------------------------|---------------------------------|
A|---------------------------------|---------------------------------|
E|-0---0-------1---------------1---|-3-----------5---------------5-3-|



G|---------------------------------|---------------------------------|
D|---------------------------------|---------------------------------|
A|---------------------------------|---------------------------------|
E|-1-----------3-------------------|-0-----------1-------------------|



G|---------------------------------|---------------------------------|
D|---------------------------------|---------------------------------|
A|---------------------------------|---------------------------------|
E|-0---0-------1---------------1---|-3---3-------5---------------5-3-|


  03:47

G|---------------------------------|---------------------------------|
D|---------------------------------|---------------------------------|
A|---------------------------------|---------------------------------|
E|-1-----------3-------------------|-0-----------1-------------------|



G|---------------------------------|---------------------------------|
D|---------------------------------|---------------------------------|
A|---------------------------------|---------------------------------|
E|-0---0-------1---------------1---|-3---3-------5-------------------|
                                                             FADE OUT
less
plus
Add to Songbook Print Version How to play lesson Submit videolesson
Click the best TAGS for this song:
None of them
Contributor: Faitvara Correct

If you can not find the chords or tabs you want, look at our partner E-chords. If you are a premium member, you have total access to our video lessons.

If you find a wrong Bad To Me from George Harrison, click the correct button above.

login/signup
my songbooks
my recent views
my submits