tools Ultimate Tabs

Start AutoScroll Font Size Down Font Size Up

Find us on Facebook

chords tabs
bass
ukulele keyboards
drums
flute
harmonica
guitar pro
video
Ultimate-Tabs

This Is Love

------------------------------------------------------------------------------
                             This is Love- George Harrison
-------------------------------------------------------------------------------
Tabbed by: Mike Kunz
E-mail: [email protected]

 ( Intro )

G|-------|-------|-------|-------|-------|-------|-------|-------|
D|-------|-------|-2-22--|-------|-------|-------|-2-22--|-------|
A|-5-55--|-------|------5|-------|-5-55--|-------|------5|-------|
E|------2|-3-33-2|-------|-5-55-3|------2|-3-33-2|-------|-5-55-3|

 Precious words
G|-------|-------|-------|-------|-------|-------|-------|-------|
D|-------|-------|-2-22--|-------|-------|-------|-2-22--|-------|
A|-5-55--|-------|------5|-------|-5-55--|-------|------5|-------|
E|------2|-3-33-2|-------|-5-55-3|------2|-3-33-2|-------|-5-55-3|

  Helping us all here to remember 
G|--------|------|-------|-------|-------|----------|--------|----------|
D|--------|------|-------|-------|-------|-------4--|--------|-------4--|
A|--------|------|-------|-------|------6|-7--5h7-75|-------6|-7--5h7-75|
E|-3-33-3-|5-55-5|-3-33-3|-5-55-5|-7-779-|----------|-7--779-|----------|

  This is love
G|--------|----------|--------|----------|
D|--------|-------4--|--------|-------4--|
A|-------6|-7--5h7-75|-------6|-7--5h7-75|
E|-7--779-|----------|-7--779-|----------|

  Little things that will change you
G|-------|-------|-------|-------|-------|-------|-------|-------|
D|-------|-------|-2-22--|-------|-------|-------|-2-22--|-------|
A|-5-55--|-------|------5|-------|-5-55--|-------|------5|-------|
E|------2|-3-33-2|-------|-5-55-3|------2|-3-33-2|-------|-5-55-3|

  Making fools of everybody
G|--------|------|-------|-------|-------|----------|--------|----------|
D|--------|------|-------|-------|-------|-------4--|--------|-------4--|
A|--------|------|-------|-------|------6|-7--5h7-75|-------6|-7--5h7-75|
E|-3-33-3-|5-55-5|-3-33-3|-5-55-5|-7-779-|----------|-7--779-|----------|

  This is love
G|--------|----------|--------|----------|
D|--------|-------4--|--------|-------4--|
A|-------6|-7--5h7-75|-------6|-7--5h7-75|
E|-7--779-|----------|-7--779-|----------|

  ( break-)
G|----------------------------|-------|-------|-------|--------|
D|----------------------------|-------|-4-44-4|-------|-4-44-4-|
A|----------------------------|-5-55-5|-------|-5-55-5|--------|
E|----------------------------|-------|-------|-------|--------|

  ( slide guitar )
G|-------|-------|-------|-------|-------|-------|-------|-------|
D|-------|-------|-2-22--|-------|-------|-------|-2-22--|-------|
A|-5-55--|-------|------5|-------|-5-55--|-------|------5|-------|
E|------2|-3-33-2|-------|-5-55-3|------2|-3-33-2|-------|-5-55-3|

  ( slide guitar )
G|--------|------|-------|-------|--------|----------|--------|----------|
D|--------|------|-------|-------|--------|-------4--|--------|-------4--|
A|--------|------|-------|-------|-------6|-7--5h7-75|-------6|-7--5h7-75|
E|-3-33-3-|5-55-5|-3-33-3|-5-55-5|-7--779-|----------|-7--779-|----------|

  This is love
G|--------|----------|--------|----------|
D|--------|-------4--|--------|-------4--|
A|-------6|-7--5h7-75|-------6|-7--5h7-75|
E|-7--779-|----------|-7--779-|----------|

  Since our problems
G|-------|-------|-------|-------|-------|-------|-------|-------|
D|-------|-------|-2-22--|-------|-------|-------|-2-22--|-------|
A|-5-55--|-------|------5|-------|-5-55--|-------|------5|-------|
E|------2|-3-33-2|-------|-5-55-3|------2|-3-33-2|-------|-5-55-3|

  When we use the power provided
G|--------|------|-------|-------|--------|----------|--------|----------|
D|--------|------|-------|-------|--------|-------4--|--------|-------4--|
A|--------|------|-------|-------|-------6|-7--5h7-75|-------6|-7--5h7-75|
E|-3-33-3-|5-55-5|-3-33-3|-5-55-5|-7--779-|----------|-7--779-|----------|

  This is love
G|--------|----------|--------|----------|-------|-------|-------|-------|
D|--------|-------4--|--------|-------4--|-------|-4-44-4|-------|-4-44-4|
A|-------6|-7--5h7-75|-------6|-7--5h7-75|-5-55-5|-------|-5-55-5|-------|
E|-7--779-|----------|-7--779-|----------|-------|-------|-------|-------|

 ( Outro )
  repeat and fade 
G|--------|----------|--------|----------|--------|----------|--------|----------|
D|--------|-------4--|--------|-------4--|--------|-------4--|--------|-------4--|
A|-------6|-7--5h7-75|-------6|-7--5h7-75|-------6|-7--5h7-75|-------6|-7--5h7-75|
E|-7--779-|----------|-7--779-|----------|-7--779-|----------|-7--779-|----------|
less
plus
Add to Songbook Print Version How to play lesson Submit videolesson
Click the best TAGS for this song:
None of them
Contributor: jiraDony Correct

If you can not find the chords or tabs you want, look at our partner E-chords. If you are a premium member, you have total access to our video lessons.

If you find a wrong Bad To Me from George Harrison, click the correct button above.

login/signup
my songbooks
my recent views
my submits