Gian Marco

Parte De Este Juego chords

Gian Marco

tools Ultimate Tabs

Start AutoScroll Font Size Down Font Size Up

Find us on Facebook

chords
tabs
bass
ukulele keyboards
drums
flute
harmonica
guitar pro
video
Ultimate-Tabs

Parte De Este Juego

Intro: 
e---33-----------33--------33-----------33--------------------3------ 
B---33-----------33--------33-----------33-------------------3---3--- 
G---00-----------00--------00-----------00------------------2-----2-- 
D-2------------0---------2------------0--------------------0--------- 
A-3---------2------------3---------2--------------3--2--------------- 
E------------------------------------------------------------3-------
G D No sé, que esta fallando, Em Bm algo, tu y yo ya no es lo mismo, C G quiero, saber que nos sucede, Am7 A7 si es que como antes, tu a mí D me quieres. (Esta parte es rápida)
riff1 
e-------2--3--5---------- 
B--------3--3--3--------- 
G---------2--2--2-------- 
D------------------------ 
A------------------------ 
E------------------------
(Se repiten los acordes) Tengo en mi cabeza dudas, frases que me dijiste a oscuras ojos azul marino que por las noches me dieron frio. (riff1) 1 Coro: G Em No te escondas quiero verte bien Bm C G D la cara, no te vayas que yo ire detras de ti G Em Ya no importa si me dices que Bm C G D no me amas, solamente quiero reclamarte todo lo que hice por ti. (riff1) 2 coro: G Que te vaya bien sin mí Bm si te veo no te conocí D? D?1 Am A7 C no estan fácil pero es parte de este juego Cm el teléfono nunca más sonó, D? D?1 Am ella por mi calle nunca más pasó G D G no es tan facil formar parte de tu juego.
e-------------------------- 
B-------------------------- 
G-------------------------- 
D--------0----------------- 
A-----2-----0--2----------- 
E-----------------3--------
(Se repiten los acordes de la primera parte) Quedate con mi cariño, tenlo, y ponlo donde tu quieras, solo, me arde en mi cabeza tus pensamientos que se me queman (Repite coro 1) (Repite coro 2) no es tan fácil formar parte de tu jue (intro) go (esta parte es suave y arpegiada) G uh, uh, uh ,uh ____________________________________________ Si encuentran algun error pasenme un e-mail [email protected] ____________________________________________
less
plus
Add to Songbook Print Version How to play lesson Submit videolesson
Click the best TAGS for this song:
None of them
Contributor: claiemmz Correct

If you can not find the chords or tabs you want, look at our partner E-chords. If you are a premium member, you have total access to our video lessons.

If you find a wrong Bad To Me from Gian Marco, click the correct button above.

login/signup
my songbooks
my recent views
my submits