tools Ultimate Tabs

Start AutoScroll Font Size Down Font Size Up

Find us on Facebook

chords
tabs
bass
ukulele
keyboards
drums
flute
harmonica
guitar pro
video
Ultimate-Tabs

The Bottle

Piste 1
             E  E  S S S S S S S S S S S S    Q    S S S S S S S S S S S S  
G||-------|--------------------------------|-------7---x-5-----------------|
D||-------|--------7---x-5-----------------|-------------------5-5-5-5-7-L-|
A||-------|----------------x---5-5-5-5-7-L-|--5----------------------------|
E||-------|--5--L--------------------------|-------------------------------|


  E  E  S S S S S S S S S S S S    Q    S S S S S S S S S S S S  
--------------------------------|-------7-7-x-5-----------------|
--------7-7-x-5-----------------|-------------------5-5-5-6-7-L-|
----------------x---5-5-5-5-7-L-|--5----------------------------|
--5--L--------------------------|-------------------------------|


  E  E  S S S S S S S S S S S S    Q    S S S S S S S S S S S S  
--------------------------------|-------7---x-5-----------------|
--------7---x-5-----------------|-------------------5-5-5-5-7-L-|
----------------x---5-5-5-5-7-L-|--5----------------------------|
--5--L--------------------------|-------------------------------|


  E  E  S S S S S S S S S S S S    Q    S S S S S S S S S S S S  
--------------------------------|-------7-7-x-5-----------------|
--------7-7-x-5-----------------|-------------------5-5-5-6-7-L-|
----------------x---5-5-5-5-7-L-|--5----------------------------|
--5--L--------------------------|-------------------------------|


  Q    S S S S S S S S S S S S    Q    S S S S S S S S S S S S  
-------9-9-x-7-L-------9-L-----|-------7-L-L-5-------x-7-------|
--7--------------x-9-L-L---9-L-|--5--------------5-L-----7-L---|
-------------------------------|-------------------------------|
-------------------------------|-------------------------------|


  Q    S S S S S S S S S S S S    Q    Q    Q     S S S S  
-------5-L-L-3-L---------------|--------------------------|
--3--------------3-L-L-L-5-L---|--2----2----0----/7-7-5-x-|
-------------------------------|--------------------------|
-------------------------------|--------------------------|


  E  E  S S S S S S S S S S S S    Q    S S S S S S S S S S S S  
--------------------------------|-------7---x-5-----------------|
--------7---x-5-----------------|-------------------5-5-5-5-7-L-|
----------------x---5-5-5-5-7-L-|--5----------------------------|
--5--L--------------------------|-------------------------------|


  E  E  S S S S S S S S S S S S    Q    S S S S S S S S S S S S   
--------------------------------|-------7-7-x-5-----------------||
--------7-7-x-5-----------------|-------------------5-5-5-6-7-L-||
----------------x---5-5-5-5-7-L-|--5----------------------------||
--5--L--------------------------|-------------------------------||




Duration Legend
---------------
W - whole
H - half
Q - quarter
E - 8th
S - 16th
T - 32nd
X - 64th
. - note dotted
|-n-|  - n-tuplets


Tablature Legend
----------------
L - tied note
x - dead note
g - grace note
(n) - ghost note
> - accentuded note
NH - natural harmonic
AH - artificial harmonic
TH - tapped harmonic
SH - semi harmonic
PH - pitch harmonic
h - hammer on
p - pull off
b - bend
br - bendRelease
pb - preBend
pbr - preBendRelease
brb - bendReleaseBend
\n/ - tremolo bar dip
\n - tremolo bar dive
-/n - tremolo bar Release up
/n\ - tremolo bar inverted dip
/n - tremolo bar return
-\n - tremolo bar Release down
S - shift slide
s - legato slide
/ -  slide into from below or out of upwards
\ -  slide into from above or out of downwards
~ - vibrato
W - wide vibrato
tr - trill
TP - tremolo picking
T - tapping
S - slap
P - pop
< - fade in
^ - brush up
v - brush down
less
plus
Add to Songbook Print Version How to play lesson Submit videolesson
Click the best TAGS for this song:
None of them
Contributor: Nikv1477 Correct

If you can not find the chords or tabs you want, look at our partner E-chords. If you are a premium member, you have total access to our video lessons.

If you find a wrong Bad To Me from Gil Scott-heron, click the correct button above.

login/signup
my songbooks
my recent views
my submits