Gojira

Flying Whales bass

Gojira

tools Ultimate Tabs

Start AutoScroll Font Size Down Font Size Up

Find us on Facebook

chords
tabs
bass
ukulele
keyboards
drums
flute
harmonica
guitar pro video
Ultimate-Tabs

Flying Whales

---------------------------------------------------------------------
			     Flying Whales - Gojira
---------------------------------------------------------------------

Tabbed By : lethalspartan
e-mail: [email protected]

Tuning:standard

intro
G|----0----------------------0---|
D|-0-----1------------0----------|
A|-----------3------------1------|
E|-------------------------------|

verse
G|--------------------------------------|
D|--------------------------------------|
A|--10/--6---6---6-6--6-6--6-6-6--6/9---|
E|--------------------------------------|

certain parts in the song are too covered up to hear.
the closest you can get for the other parts 
is playing an open E string.
since it is a metal song, you can get away with it. 
| /  slide up
| \  slide down
| h  hammer-on
| p  pull-off
| ~  vibrato
| +  harmonic
| x  Mute note
=======================================================
less
plus
Add to Songbook Print Version How to play lesson Submit videolesson
Click the best TAGS for this song:
None of them
Contributor: Patafiel Correct

If you can not find the chords or tabs you want, look at our partner E-chords. If you are a premium member, you have total access to our video lessons.

If you find a wrong Bad To Me from Gojira, click the correct button above.

login/signup
my songbooks
my recent views
my submits