Gojira

From The Sky bass

Gojira

tools Ultimate Tabs

Start AutoScroll Font Size Down Font Size Up

Find us on Facebook

chords
tabs
bass
ukulele
keyboards
drums
flute
harmonica
guitar pro video
Ultimate-Tabs

From The Sky

Song : From The Sky
Artist : Gojira
Album : From Mars To Sirius

Tuning : DGCF


F||--------------------------------------------------|
C||--------------------------------------------------|
G||--------------------------------------------------|
D||--0-0-0-0-0-0-3-3-3-3-3-3-2-2-2-2-2-2-2-2-2-2-2-2-|


--------------------------------------------------|
--------------------------------------------------|
--------------------------------------------------|
--2-2-5-5-5-5-5-5-3-3-3-3-3-3-3-3-3-3-2-2-2-2-2-2-|


--------------------------------------------------|
--------------------------------------------------|
--------------------------------------------------|
--0-0-0-0-0-0-3-3-3-3-3-3-2-2-2-2-2-2-2-2-2-2-2-2-|


--------------------------------------|
--------------------------------------|
--------------------------------------|
--2--5--5--5--3--3--3--7--7--7--5--5--|


--------------------------------------------------|
--------------------------------------------------|
--------------------------------------------------|
--0-0-0-0-0-0-3-3-3-3-3-3-2-2-2-2-2-2-2-2-2-2-2-2-|


--------------------------------------------------|
--------------------------------------------------|
--------------------------------------------------|
--2-2-5-5-5-5-5-5-3-3-3-3-3-3-3-3-3-3-2-2-2-2-2-2-|


--------------------------------------------------|
--------------------------------------------------|
--------------------------------------------------|
--0-0-0-0-0-0-3-3-3-3-3-3-2-2-2-2-2-2-2-2-2-2-2-2-|

 
--------------------------------------|
--------------------------------------|
--------------------------------------|
--2--5--5--5--3--3--3--7--7--7--5--5--|


--------------------------------------------------|
--------------------------------------------------|
--------------------------------------------------|
--0-0-0-0-0-0-3-3-3-3-3-3-2-2-2-2-2-2-2-2-2-2-2-2-|


--------------------------------------------------|
--------------------------------------------------|
--------------------------------------------------|
--2-2-5-5-5-5-5-5-3-3-3-3-3-3-3-3-3-3-2-2-2-2-2-2-|

 
--------------------------------------------------|
--------------------------------------------------|
--------------------------------------------------|
--3-3-3-3-3-3-3-3-3-3-3-3-2-2-2-2-2-2-2-2-2-2-2-2-|

 
--------------------------------------|
--------------------------------------|
--------------------------------------|
--2--5--5--5--3--3--3--7--7--7--5--5--|


--------------------------------------------------|
--------------------------------------------------|
--------------------------------------------------|
--0-0-0-0-0-0-3-3-3-3-3-3-2-2-2-2-2-2-2-2-2-2-2-2-|


--------------------------------------------------|
--------------------------------------------------|
--------------------------------------------------|
--2-2-5-5-5-5-5-5-3-3-3-3-3-3-3-3-3-3-2-2-2-2-2-2-|


--------------------------------------------------|
--------------------------------------------------|
--------------------------------------------------|
--0-0-0-0-0-0-3-3-3-3-3-3-2-2-2-2-2-2-2-2-2-2-2-2-|

 
--------------------------------------|--------------------------------------|
--------------------------------------|--------------------------------------|
--------------------------------------|--------------------------------------|
--2--5--5--5--3--3--3--7--7--7--5--5--|--0--2--3--0--2--3--0--2--3--0--2--3--|

  
--------------------|--------------------|--------------------|
--------------------|--------------------|--------------------|
--------------------|--------------------|--------------------|
--0--3--3--0--3--3--|--0--3--3--0--3--3--|--0--3--3--0--2--2--|


--------------------|--------------------|--------------------|
--------------------|--------------------|--------------------|
--------------------|--------------------|--------------------|
--0--2--2--0--2--2--|--0--2--2--0--2--2--|--0--3--3--0--3--3--|

 
--------------------|--------------------|--------------------|
--------------------|--------------------|--------------------|
--------------------|--------------------|--------------------|
--0--3--3--0--3--3--|--0--3--3--0--3--3--|--0--2--2--0--2--2--|


--------------------|--------------------|--------------------|
--------------------|--------------------|--------------------|
--------------------|--------------------|--------------------|
--0--2--2--0--2--2--|--0--2--2--0--3--3--|--0--3--3--0--3--3--|


--------------------|--------------------|--------------------|
--------------------|--------------------|--------------------|
--------------------|--------------------|--------------------|
--0--3--3--0--3--3--|--0--2--2--0--2--2--|--0--2--2--0--2--2--|


--------------------|--------------------|--------------------|
--------------------|--------------------|--------------------|
--------------------|--------------------|--------------------|
--0--2--2--0--2--2--|--0--3--3--0--3--3--|--0--3--3--0--3--3--|


--------------------|--------------------|--------------------------|
--------------------|--------------------|--------------------------|
--------------------|--------------------|--------------------------|
--0--3--3--0--2--2--|--0--2--2--0--2--2--|--0--2--2--0--2--2--0--2--|


--------------------------------------------------|
--------------------------------------------------|
--------------------------------------------------|
--0-0-0-0-0-0-3-3-3-3-3-3-2-2-2-2-2-2-2-2-2-2-2-2-|


--------------------------------------------------|
--------------------------------------------------|
--------------------------------------------------|
--2-2-5-5-5-5-5-5-3-3-3-3-3-3-3-3-3-3-2-2-2-2-2-2-|


--------------------------------------------------|
--------------------------------------------------|
--------------------------------------------------|
--0-0-0-0-0-0-3-3-3-3-3-3-2-2-2-2-2-2-2-2-2-2-2-2-|


--------------------------------------|
--------------------------------------|
--------------------------------------|
--2--5--5--5--3--3--3--7--7--7--5--5--|


--------------------------------------------------|
--------------------------------------------------|
--------------------------------------------------|
--0-0-0-0-0-0-3-3-3-3-3-3-2-2-2-2-2-2-2-2-2-2-2-2-|


--------------------------------------------------|
--------------------------------------------------|
--------------------------------------------------|
--2-2-5-5-5-5-5-5-3-3-3-3-3-3-3-3-3-3-2-2-2-2-2-2-|


--------------------------------------------------|
--------------------------------------------------|
--------------------------------------------------|
--0-0-0-0-0-0-3-3-3-3-3-3-2-2-2-2-2-2-2-2-2-2-2-2-|


--------------------------------------|--------------------|
--------------------------------------|--------------------|
--------------------------------------|--------------------|
--2--5--5--5--3--3--3--7--7--7--5--5--|--0--3--3--0--3--3--|


--------------------|--------------------|--------------------|
--------------------|--------------------|--------------------|
--------------------|--------------------|--------------------|
--0--3--3--0--3--3--|--0--3--3--0--2--2--|--0--2--2--0--2--2--|

  
--------------------|--------------------|--------------------|
--------------------|--------------------|--------------------|
--------------------|--------------------|--------------------|
--0--2--2--0--2--2--|--0--3--3--0--3--3--|--0--3--3--0--3--3--|


--------------------|--------------------|--------------------|
--------------------|--------------------|--------------------|
--------------------|--------------------|--------------------|
--0--3--3--0--3--3--|--0--2--2--0--2--2--|--0--2--2--0--2--2--|


--------------------|--------------------|--------------------|
--------------------|--------------------|--------------------|
--------------------|--------------------|--------------------|
--0--2--2--0--3--3--|--0--3--3--0--3--3--|--0--3--3--0--3--3--|

  
--------------------|--------------------|--------------------|
--------------------|--------------------|--------------------|
--------------------|--------------------|--------------------|
--0--2--2--0--2--2--|--0--2--2--0--2--2--|--0--2--2--0--2--2--|


--------------------|--------------------|--------------------|
--------------------|--------------------|--------------------|
--------------------|--------------------|--------------------|
--0--3--3--0--3--3--|--0--3--3--0--3--3--|--0--3--3--0--2--2--|


--------------------|--------------------------|
--------------------|--------------------------|
--------------------|--------------------------|
--0--2--2--0--2--2--|--0--2--2--0--2--2--0--2--|


--------------------------------------------------|
--------------------------------------------------|
--------------------------------------------------|
--0-0-0-0-0-0-3-3-3-3-3-3-2-2-2-2-2-2-2-2-2-2-2-2-|


--------------------------------------------------|
--------------------------------------------------|
--------------------------------------------------|
--2-2-5-5-5-5-5-5-3-3-3-3-3-3-3-3-3-3-2-2-2-2-2-2-|


--------------------------------------------------|
--------------------------------------------------|
--------------------------------------------------|
--0-0-0-0-0-0-3-3-3-3-3-3-2-2-2-2-2-2-2-2-2-2-2-2-|

 
--------------------------------------|
--------------------------------------|
--------------------------------------|
--2--5--5--5--3--3--3--7--7--7--5--5--|


--------------------------------------------------|
--------------------------------------------------|
--------------------------------------------------|
--0-0-0-0-0-0-3-3-3-3-3-3-2-2-2-2-2-2-2-2-2-2-2-2-|


--------------------------------------------------|
--------------------------------------------------|
--------------------------------------------------|
--2-2-5-5-5-5-5-5-3-3-3-3-3-3-3-3-3-3-2-2-2-2-2-2-|


--------------------------------------------------|
--------------------------------------------------|
--------------------------------------------------|
--3-3-3-3-3-3-3-3-3-3-3-3-2-2-2-2-2-2-2-2-2-2-2-2-|

 
--------------------------------------|
--------------------------------------|
--------------------------------------|
--2--5--5--5--3--3--3--7--7--7--5--5--|

 
--------------------------------------------------|
--------------------------------------------------|
--------------------------------------------------|
--0-0-0-0-0-0-3-3-3-3-3-3-2-2-2-2-2-2-2-2-2-2-2-2-|


--------------------------------------------------|
--------------------------------------------------|
--------------------------------------------------|
--2-2-5-5-5-5-5-5-3-3-3-3-3-3-3-3-3-3-2-2-2-2-2-2-|


--------------------------------------------------|
--------------------------------------------------|
--------------------------------------------------|
--0-0-0-0-0-0-3-3-3-3-3-3-2-2-2-2-2-2-2-2-2-2-2-2-|


--------------------------------------|------------------------------|
--------------------------------------|------------------------------|
--------------------------------------|------------------6-6-5-4-3-2-|
--2--5--5--5--3--3--3--7--7--7--5--5--|--------------0---------------|


----------------------------------|----------------------------------|
----------------------------------|----------------------------------|
----------------------6-6-5-4-3-2-|----------------------6-6-5-4-3-2-|
--1--0-0-1-0-1-----0--------------|--1--0-0-1-0-1-----0--------------|

  
----------------------------------|--------------------------------------|
----------------------------------|--------------------------------------|
----------------------6-6-5-4-3-2-|--6-6-6-5-5-4-6-6-6-5-5-5-4-4-4-3-3-3-|
--1--0-0-1-0-1-----0--------------|--------------------------------------|

 
----------------------------------|----------------------------------|
----------------------------------|----------------------------------|
----------------------6-6-5-4-3-2-|----------------------6-6-5-4-3-2-|
--1--0-0-1-0-1-----0--------------|--1--0-0-1-0-1-----0--------------|

 
----------------------------------|-------------------------------|
----------------------------------|-------------------------------|
----------------------6-6-5-4-3-2-|-------------------------------|
--1--0-0-1-0-1-----0--------------|--1--0-0-1--0-0-1-1-L-1--1-1---|


----------------------------------|----------------------------------|
----------------------------------|----------------------------------|
----------------------6-6-5-4-3-2-|----------------------6-6-5-4-3-2-|
--1--0-0-1-0-1-----0--------------|--1--0-0-1-0-1-----0--------------|


----------------------------------|-----------------------|
----------------------------------|-----------------------|
----------------------6-6-5-4-3-2-|-----------------------|
--1--0-0-1-0-1-----0--------------|--1--0-0-1--0-0-1--0-0-|


--------------------------|--------------------|--------------------|
--------------------------|--------------------|--------------------|
--------------------------|--------------------|--------------------|
--1-----1-----1-----1--1--|--0--3--3--0--3--3--|--0--3--3--0--3--3--|


--------------------|--------------------|--------------------|
--------------------|--------------------|--------------------|
--------------------|--------------------|--------------------|
--0--3--3--0--2--2--|--0--2--2--0--2--2--|--0--2--2--0--2--2--|


--------------------|--------------------|--------------------|
--------------------|--------------------|--------------------|
--------------------|--------------------|--------------------|
--0--3--3--0--3--3--|--0--3--3--0--3--3--|--0--3--3--0--3--3--|


--------------------|--------------------|--------------------|
--------------------|--------------------|--------------------|
--------------------|--------------------|--------------------|
--0--2--2--0--2--2--|--0--2--2--0--2--2--|--0--2--2--0--3--3--|


--------------------|--------------------|--------------------|
--------------------|--------------------|--------------------|
--------------------|--------------------|--------------------|
--0--3--3--0--3--3--|--0--3--3--0--3--3--|--0--2--2--0--2--2--|


--------------------|--------------------|--------------------|
--------------------|--------------------|--------------------|
--------------------|--------------------|--------------------|
--0--2--2--0--2--2--|--0--2--2--0--2--2--|--0--3--3--0--3--3--|


--------------------|--------------------|--------------------|
--------------------|--------------------|--------------------|
--------------------|--------------------|--------------------|
--0--3--3--0--3--3--|--0--3--3--0--2--2--|--0--2--2--0--2--2--|


--------------------------|--------------------------------------------------|
--------------------------|--------------------------------------------------|
--------------------------|--------------------------------------------------|
--0--2--2--0--2--2--0--2--|--8-8-8-8-8-8-8-8-8-8-8-8-8-8-8-8-8-8-8-8-8-8-8-8-|


--------------------------------------------------|
--------------------------------------------------|
--------------------------------------------------|
--7-7-7-7-7-7-7-7-7-7-7-7-7-7-7-7-7-7-7-7-7-7-7-7-|


--------------------------------------------------------------------|
--------------------------------------------------------------------|
--------------------------------------------------------------------|
--12-12-12-12-12-12-12-12-12-12-12-12-12-12-12-12-12-12-0-0-0-0-0-0-|


-----------------------------------------------------------------|
-----------------------------------------------------------------|
-----------------------------------------------------------------|
--12-12-12-12-12-12-12-12-12-12-12-12-12-11-10-9-8-7-6-5-4-3-2-1-|

  
--------------------------------------------------|
--------------------------------------------------|
--------------------------------------------------|
--3-3-3-3-3-3-3-3-3-3-3-3-3-3-3-3-3-3-3-3-3-3-3-3-|


--------------------------------------------------|
--------------------------------------------------|
--------------------------------------------------|
--1-1-1-1-1-1-1-1-1-1-1-1-1-1-1-1-1-1-1-1-1-1-1-1-|

 
--------------------------------------------------|
--------------------------------------------------|
--------------------------------------------------|
--0-0-0-0-0-0-0-0-0-0-0-0-0-0-0-0-0-0-0-0-0-0-0-0-|

          
--------------------------------------------------|----|----|----|----|----|
--------------------------------------------------|----|----|----|----|----|
--------------------------------------------------|----|----|----|----|----|
--0-0-0-0-0-0-0-0-0-0-0-0-0-0-0-0-0-0-0-0-0-0-0-0-|----|----|----|----|----|


 
----|----|----|-------------------------|--------------------------|
----|----|----|-------------------------|--------------------------|
----|----|----|---/10-------------------|--/12---------------------|
----|----|----|-------------------------|--------------------------|

  
------------------------|-----------------------|-----------------------|
------------------------|-----------------------|-----------------------|
--14----L---------------|-----------------------|--10-------------------|
------------------------|-----------------------|-----------------------|


----------------------|--------------------------------------|
----------------------|--------------------------------------|
--8-------------------|--7--7--7--7--7--7--7--7--7--7--7--7--|
----------------------|--------------------------------------|

 
--------------------------------------|
--------------------------------------|
--------------------------------------|
--0--0--0--0--0--0--0--0--0--0--0--0--|


--------------------------------------------------|
--------------------------------------------------|
--------------------------2-2-2-2---------2-2-3-3-|
--3-3-3-3-3-3-3-3-3-3-3-3---------3-3-3-3---------|


--------------------------------------------------|
--------------------------------------------------|
--------------------------3-3-3-3-3-3-5-5-5-5-5-5-|
--1-1-1-1-1-1-1-1-1-1-1-1-------------------------|


--------------------------------------------------|
--------------------------------------------------|
--------------------------7-7-7-7-7-7-7-7-7-7-7-7-|
--0-0-0-0-0-0-0-0-0-0-0-0-------------------------|

 
--------------------------------------------------|
--------------------------------------------------|
--------------------------5-5-5-5-5-5-5-5-5-5-5-5-|
--0-0-0-0-0-0-0-0-0-0-0-0-------------------------|

  
--------------------------------------------------|
--------------------------------------------------|
--------------------------2-2-2-2---------2-2-3-3-|
--3-3-3-3-3-3-3-3-3-3-3-3---------3-3-3-3---------|

 
--------------------------------------------------|
--------------------------------------------------|
--------------------------3-3-3-3-3-3-5-5-5-5-5-5-|
--1-1-1-1-1-1-1-1-1-1-1-1-------------------------|


--------------------------------------------------|
--------------------------------------------------|
--------------------------7-7-7-7-7-7-7-7-7-7-7-7-|
--0-0-0-0-0-0-0-0-0-0-0-0-------------------------|

 
--------------------------------------------------|
--------------------------------------------------|
--------------------------5-5-5-5-5-5-5-5-5-5-5-5-|
--0-0-0-0-0-0-0-0-0-0-0-0-------------------------|


--------------------------------------------------|
--------------------------------------------------|
--------------------------2-2-2-2---------2-2-3-3-|
--3-3-3-3-3-3-3-3-3-3-3-3---------3-3-3-3---------|


--------------------------------------------------|
--------------------------------------------------|
--------------------------3-3-3-3-3-3-5-5-5-5-5-5-|
--1-1-1-1-1-1-1-1-1-1-1-1-------------------------|


--------------------------------------------------|
--------------------------------------------------|
--------------------------7-7-7-7-7-7-7-7-7-7-7-7-|
--0-0-0-0-0-0-0-0-0-0-0-0-------------------------|

 
--------------------------------------------------|
--------------------------------------------------|
--------------------------5-5-5-5-5-5-5-5-5-5-5-5-|
--0-0-0-0-0-0-0-0-0-0-0-0-------------------------|

 
--------------------------------------------------|
--------------------------------------------------|
--------------------------2-2-2-2---------2-2-3-3-|
--3-3-3-3-3-3-3-3-3-3-3-3---------3-3-3-3---------|


--------------------------------------------------|
--------------------------------------------------|
--------------------------3-3-3-3-3-3-5-5-5-5-5-5-|
--1-1-1-1-1-1-1-1-1-1-1-1-------------------------|


--------------------------------------------------|
--------------------------------------------------|
--------------------------7-7-7-7-7-7-7-7-7-7-7-7-|
--0-0-0-0-0-0-0-0-0-0-0-0-------------------------|

 
--------------------------------------------------|
--------------------------------------------------|
--------------------------5-5-5-5-5-5-5-5-5-5-5-5-|
--0-0-0-0-0-0-0-0-0-0-0-0-------------------------|

 
--------------------------------------------------|
--------------------------------------------------|
--------------------------2-2-2-2---------2-2-3-3-|
--3-3-3-3-3-3-3-3-3-3-3-3---------3-3-3-3---------|


--------------------------------------------------|
--------------------------------------------------|
--------------------------3-3-3-3-3-3-5-5-5-5-5-5-|
--1-1-1-1-1-1-1-1-1-1-1-1-------------------------|

  
--------------------------------------------------|
--------------------------------------------------|
--------------------------7-7-7-7-7-7-7-7-7-7-7-7-|
--0-0-0-0-0-0-0-0-0-0-0-0-------------------------|

 
--------------------------------------------------|
--------------------------------------------------|
--------------------------5-5-5-5-5-5-5-5-5-5-5-5-|
--0-0-0-0-0-0-0-0-0-0-0-0-------------------------|

 
--------------------------------------------------|
--------------------------------------------------|
--------------------------2-2-2-2---------2-2-3-3-|
--3-3-3-3-3-3-3-3-3-3-3-3---------3-3-3-3---------|


--------------------------------------------------|
--------------------------------------------------|
--------------------------3-3-3-3-3-3-5-5-5-5-5-5-|
--1-1-1-1-1-1-1-1-1-1-1-1-------------------------|


--------------------------------------------------|
--------------------------------------------------|
--------------------------7-7-7-7-7-7-7-7-7-7-7-7-|
--0-0-0-0-0-0-0-0-0-0-0-0-------------------------|


--------------------------------------------------|
--------------------------------------------------|
--------------------------5-5-5-5-5-5-5-5-5-5-5-5-|
--0-0-0-0-0-0-0-0-0-0-0-0-------------------------|

 
--------------------------------------------------|
--------------------------------------------------|
--------------------------2-2-2-2---------2-2-3-3-|
--3-3-3-3-3-3-3-3-3-3-3-3---------3-3-3-3---------|


--------------------------------------------------|
--------------------------------------------------|
--------------------------3-3-3-3-3-3-5-5-5-5-5-5-|
--1-1-1-1-1-1-1-1-1-1-1-1-------------------------|


--------------------------------------------------|
--------------------------------------------------|
--------------------------7-7-7-7-7-7-7-7-7-7-7-7-|
--0-0-0-0-0-0-0-0-0-0-0-0-------------------------|

 
--------------------------------------------------|
--------------------------------------------------|
--------------------------5-5-5-5-5-5-5-5-5-5-5-5-|
--0-0-0-0-0-0-0-0-0-0-0-0-------------------------|

  
--------------------------------------------------|
--------------------------------------------------|
--------------------------2-2-2-2---------2-2-3-3-|
--3-3-3-3-3-3-3-3-3-3-3-3---------3-3-3-3---------|


--------------------------------------------------|
--------------------------------------------------|
--------------------------3-3-3-3-3-3-5-5-5-5-5-5-|
--1-1-1-1-1-1-1-1-1-1-1-1-------------------------|

 
--------------------------------------------------|
--------------------------------------------------|
--------------------------7-7-7-7-7-7-7-7-7-7-7-7-|
--0-0-0-0-0-0-0-0-0-0-0-0-------------------------|


--------------------------------------------------|
--------------------------------------------------|
--------------------------5-5-5-5-5-5-5-5-5-5-5-5-|
--0-0-0-0-0-0-0-0-0-0-0-0-------------------------|


--------------------------------------------------|
--------------------------------------------------|
--------------------------2-2-2-2---------2-2-3-3-|
--3-3-3-3-3-3-3-3-3-3-3-3---------3-3-3-3---------|

 
--------------------------------------------------|
--------------------------------------------------|
--------------------------3-3-3-3-3-3-5-5-5-5-5-5-|
--1-1-1-1-1-1-1-1-1-1-1-1-------------------------|


--------------------------------------------------|
--------------------------------------------------|
--------------------------7-7-7-7-7-7-7-7-7-7-7-7-|
--0-0-0-0-0-0-0-0-0-0-0-0-------------------------|

 
--------------------------------------------------|
--------------------------------------------------|
--------------------------5-5-5-5-5-5-5-5-5-5-5-5-|
--0-0-0-0-0-0-0-0-0-0-0-0-------------------------|


--------------------------------------------------|
--------------------------------------------------|
--------------------------2-2-2-2---------2-2-3-3-|
--3-3-3-3-3-3-3-3-3-3-3-3---------3-3-3-3---------|

 
--------------------------------------------------|
--------------------------------------------------|
--------------------------3-3-3-3-3-3-5-5-5-5-5-5-|
--1-1-1-1-1-1-1-1-1-1-1-1-------------------------|

 
--------------------------------------------------|
--------------------------------------------------|
--------------------------7-7-7-7-7-7-7-7-7-7-7-7-|
--0-0-0-0-0-0-0-0-0-0-0-0-------------------------|


--------------------------------------------------|
--------------------------------------------------|
--------------------------5-5-5-5-5-5-5-5-5-5-5-5-|
--0-0-0-0-0-0-0-0-0-0-0-0-------------------------|

  
--------------------------------------------------|
--------------------------------------------------|
--------------------------------------------------|
--0-0-0-0-0-0-3-3-3-3-3-3-2-2-2-2-2-2-2-2-2-2-2-2-|

 
--------------------------------------------------|
--------------------------------------------------|
--------------------------------------------------|
--2-2-5-5-5-5-5-5-3-3-3-3-3-3-3-3-3-3-2-2-2-2-2-2-|

 
--------------------------------------------------|
--------------------------------------------------|
--------------------------------------------------|
--0-0-0-0-0-0-3-3-3-3-3-3-2-2-2-2-2-2-2-2-2-2-2-2-|

  
--------------------------------------|
--------------------------------------|
--------------------------------------|
--2--5--5--5--3--3--3--7--7--7--5--5--|


--------------------------------------------------|
--------------------------------------------------|
--------------------------------------------------|
--0-0-0-0-0-0-3-3-3-3-3-3-2-2-2-2-2-2-2-2-2-2-2-2-|


--------------------------------------------------|
--------------------------------------------------|
--------------------------------------------------|
--2-2-5-5-5-5-5-5-3-3-3-3-3-3-3-3-3-3-2-2-2-2-2-2-|


--------------------------------------------------|
--------------------------------------------------|
--------------------------------------------------|
--0-0-0-0-0-0-3-3-3-3-3-3-2-2-2-2-2-2-2-2-2-2-2-2-|


--------------------------------------|-----|-----||
--------------------------------------|-----|-----||
--------------------------------------|-----|-----||
--2--5--5--5--3--3--3--7--7--7--5--5--|-----|-----||
less
plus
Add to Songbook Print Version How to play lesson Submit videolesson
Click the best TAGS for this song:
None of them
Contributor: contsjus Correct

If you can not find the chords or tabs you want, look at our partner E-chords. If you are a premium member, you have total access to our video lessons.

If you find a wrong Bad To Me from Gojira, click the correct button above.

login/signup
my songbooks
my recent views
my submits