Gorillaz

Clint Eastwood (ver. 3) drums

Gorillaz

tools Ultimate Tabs

Start AutoScroll Font Size Down Font Size Up

Find us on Facebook

chords
tabs
bass
ukulele
keyboards
drums
flute
harmonica
guitar pro
video
Ultimate-Tabs

Clint Eastwood (ver. 3)


Clint Eastwood
By Gorillaz

I never found a good tab for this song, so I did mine, but not 
only for drums, you can find here the tab of all the instruments 
in the song, except keyboard parts cos’ I ain’t got the time
If your band’s gonna play this song, this will help you a lot.


Drums***********************************************************************

Key:

o = Hit on Drum/Kick on Bass
x = Hit on Cymbal/Closed Hi-Hats
S = Snare Drum
B = Bass Drum
C = Crash Cymbal
H = Hi-Hat

Note: For the Crash Cymbal, play the 1st and 3rd hit 
near the bell and play the 2nd and 4th near the edge.
You can play the 5th or not (x).

                                   /= All The Song =\
C|--------x-x-x-x-(x)--------------|----------------|
H|----------------|x-x-x-x-x-x-x-x-|x-x-x-x-x-x-x-x-|
S|----------------|----o-------o---|----o-------o---|
B|--------o-o-o-o-|o-------o-o-----|o-------o-o-----|
 |1 + 2 + 3 + 4 + |1 + 2 + 3 + 4 + |1 + 2 + 3 + 4 + |
                                   |                |
                                   /=== Sometimes ==\
                                  C|--------x-x-x-x-|
                                  H|x-x-x-x---------|
                                  S|----o-----------|
                                  B|o-------o-o-o-o-|
                                   |1 + 2 + 3 + 4 + | 

After the verse, the drums play like this:

C|-------------------------------|
H|--x---x---x---x---x---x---x---x|
S|ooo---o---o-----o-o-o-o---o----|
B|--o---------------o---o--------|
 |+ 1 + + + 2 + + + 3 + + + 4 + +|

I know this is almost imposible, but you can program a music box.


Bass************************************************************************

Tuning: E A D G (standard)

All The Song:

 /====== x3 ======\
G|--------3---1-3-|--------4---1-3-|
D|1---------------|1---------------|
A|----------------|----------------|
E|----------------|----------------|
 |1 + 2 + 3 + 4 + |1 + 2 + 3 + 4 +
 |                |
 /== Sometimes ===\
G|--------3-------|
D|1-----------1---|
A|----------------|
E|----------------|
  1 + 2 + 3 + 4 +  


Guitar**********************************************************************

Tuning: E A D G B e (standard)

Note: I tabbed out two versions, I believe the 1st one’s right, anyway, 
you can try both of them and decide, or you can mix them. 
By the way, you can play this with a keyboard and it sounds OK.

All The Song:

 /====== x3 ======\
e|----------------|----------------|
B|----------------|----------------|
G|----8-8-----8---|----8-8-----9---|
D|----8-8-----8---|----8-8-----9---|
A|6---6-6-----6---|----6-6-----7---|
E|--------6-------|6-------7-------|
  1 + 2 + 3 + 4 +  1 + 2 + 3 + 4 +   ?iming

Or

 /====== x3 ======\
e|----6-6-----6---|----6-6-----7---|
B|----7-7-----7---|----7-7-----7---|
G|----8-8-----8---|----8-8-----8---|
D|----8-8-----8---|----8-8-----9---|
A|6---6-6-----6---|----6-6-----9---|
E|--------6-------|6-------7-------|
  1 + 2 + 3 + 4 +  1 + 2 + 3 + 4 +


Pipe************************************************************************

For the Pipe, or whistling thing, you can 
improvise on the guitar with this scale:

C# - Eb – F# - G# - A – Bb

Need help?:

e|4h6p4h6---|4h6p4h6---|4h5h6p4h6---|4h5-6p4h6---|11----|9~--|-------11~----|
B|--------4~|--------4~|----------4-|----------4~|---11~|--9~|~7h9p7----(11)|

…and so on.

Oh yeah, if you need the lyrics, have questions, wanna give me money,
or wanna send me a love Declaration, E-Mail me:

[email protected]
 
less
plus
Add to Songbook Print Version How to play lesson Submit videolesson
Click the best TAGS for this song:
None of them
Contributor: TamiMr_R Correct

If you can not find the chords or tabs you want, look at our partner E-chords. If you are a premium member, you have total access to our video lessons.

If you find a wrong Bad To Me from Gorillaz, click the correct button above.

login/signup
my songbooks
my recent views
my submits