Green Day

21 Guns tab

Green Day

Album:21st Century Breakdown

Year:2009

tools Ultimate Tabs

Start AutoScroll Font Size Down Font Size Up

Find us on Facebook

Ultimate-Tabs

21 Guns

21 Guns 
Green Day 

Intro: 
e---------5-------------5--------------------------- 
b--6---3-----5----6--3-----5------------------------ 
g--------------------------------------------------- 
D--------------------------------------------------- 
A--------------------------------------------------- 
E---------------------------------------------------
Dm A# F C Do you know whats worth fighting for? Dm A# F C When its not worth dying for? Dm A# F C Does it take your breath away, A# C and you feel yourself suffocating? Dm A# F C Does the pain weigh out the pride? Dm A# F C and you look for a place to hide? Dm A# F C did someone break your heart inside? A# F youre in ruins Chorus F C/E D C A# One, 21 guns, lay down your arms F C (Riff G--9-10-12- ) Give up the fight F C/E D C A# One, 21 guns, Throw up your arms F C (Riff G--9-10-12- ) into the sky F A# G You and I Dm A# F C When youre at the end of the road Dm A# F C And you've lost all sense of control Dm A# F C And your thoughts have taken their toll A# C When your mind breaks the spirit of your soul Dm A# F C Your faith walks on broken glass Dm A# F C and the hangover doesnt pass Dm A# F C Nothings ever built to last A# F youre in ruins. Chorus F C/E D C A# One, 21 guns, lay down your arms F C (Riff G--9-10-12- ) Give up the fight F C/E D C A# One, 21 guns, Throw up your arms F C (Riff G--9-10-12- ) into the sky F A# G You and I
Bridge: 
 Dm         A#     F            C 
    did you try to live on your own 
e--------------------------------------------------- 
b-6-----6------6----6----6----6----5---5------------ 
g----7-----7-------------------------5---5---------- 
D----------------8----8----------------------------- 
A---------------------------8---8------------------- 
E--------------------------------------------------- 
Dm          A#             F        A/C# 
   when you burned down the house and home? 
e--------------------------------------------------- 
b-6-----6------6----6----6----6----5---5------------ 
g----7-----7-------------------------6---6---------- 
D----------------8----8----------------------------- 
A---------------------------8---8------------------- 
E--------------------------------------------------- 
Dm          A#       F          A/C# 
   Did you stand too close to the fire? 
e--------------------------------------------------- 
b-6-----6------6----6----6----6----5---5------------ 
g----7-----7-------------------------6---6---------- 
D----------------8----8----------------------------- 
A---------------------------8---8------------------- 
E--------------------------------------------------- 
        A#                   C                    
Like a liar looking for forgiveness from a stone 



Solo: 
  F      C/E  D          C   A#   F       C 
e----------------------------------------------------- 
b-----10--8-10--------------------------------------8- 
g---10--10----10--7-10-7-9-10-7--7---------9-9-9-10--- 
D-10----------------------------8-8-10-7-------------- 
A----------------------------------------8------------ 
E----------------------------------------------------- 

  F      C/E  D          C   A#   F       C 
e---------------------------------------------------10--- 
b-----10--8-10------------------------------------------- 
g---10--10----10--7-10-7-9-10-7--7---------9-9-9-10------ 
D-10----------------------------8-8-10-7----------------- 
A----------------------------------------8--------------- 
E-------------------------------------------------------- 

 A#     F     A/C#               (Play Intro Again) 
e----------------------------------------5-------------5--- 
b---------------------------------6---3-----5----6--3------ 
g-7------------9-9-9-9-9-9-9-10---------------------------- 
D---8---10-7----------------------------------------------- 
A-----8------8--------------------------------------------- 
E---------------------------------------------------------- 

Play intro again: 
Intro: 
e---------5-------------5--------------------------- 
b--6---3-----5----6--3-----5------------------------ 
g---------------------------------------------------
Dm A# F C When its time to live and let die Dm A# F C and you cant get another try Dm A# F C something inside this heart has died A# youre in ruins Chorus F C/E D C A# One, 21 guns, lay down your arms F C (Riff G--9-10-12- ) Give up the fight F C/E D C A# One, 21 guns, Throw up your arms F C (Riff G--9-10-12- ) into the sky
   F    C/E    D   C             A# 
   One, 21 guns, lay down your arms 
e---------------------------------------------- 
b----------8--8-------------------------------- 
g--10--10---------10--10--9--10---7-7---------- 
D----10--10-10-10---12--12-10--10--8-8--------- 
A---------------------------------------------- 
E---------------------------------------------- 
   F           C        
   Give up the fight    
e--------------------------------------------------- 
b--------------------8------------------------------ 
g---------9--9---9-10------------------------------- 
D--10-10---10-10------------------------------------ 
A----8--8------------------------------------------- 
E--------------------------------------------------- 
   F    C/E    D   C             A# 
   One, 21 guns, Throw up your arms 
e---------------------------------------------- 
b----------8--8-------------------------------- 
g--10--10---------10--10--9--10---7-7---------- 
D----10--10-10-10---12--12-10--10--8-8--------- 
A---------------------------------------------- 
E---------------------------------------------- 
   F          C         
   into the sky 
e--------------------------------------------------- 
b--------------------8------------------------------ 
g---------9--9---9-10------------------------------- 
D--10-10---10-10------------------------------------ 
A----8--8------------------------------------------- 
E--------------------------------------------------- 
        F  A# G 
You and I
less
plus
Add to Songbook Print Version How to play lesson Submit videolesson
Click the best TAGS for this song:
None of them
Contributor: Seulguit Correct

If you can not find the chords or tabs you want, look at our partner E-chords. If you are a premium member, you have total access to our video lessons.

If you find a wrong Bad To Me from Green Day, click the correct button above.

login/signup
my songbooks
my recent views
my submits