Green Day

Good Riddance - Time Of Yout Live tab

Green Day

tools Ultimate Tabs

Start AutoScroll Font Size Down Font Size Up

Find us on Facebook

chords
tabs
bass
ukulele
keyboards
drums
flute
harmonica
guitar pro
video
Ultimate-Tabs

Good Riddance - Time Of Yout Live

         Billie Joe Armstrong 
Track 1 
Smoothly. 
 
 
 
                                                 
E||---------------------|----------------------| 
B||---------------------|----------------------| 
G||-------0-------------|----------0-----------| 
D||------------0--------|---------------0------| 
A||---------------------|----------------------| 
E||--3------------------|--3----3--------------| 
 
 
                                                   
------------------------|------------------------| 
----------3-------------|----------3-------------| 
---------------0-----0--|---------------0-----0--| 
--0----0----------0-----|--0----0----------0-----| 
--x----x----------------|--x----x----------------| 
--3----3----------------|--3----3----------------| 
 
 
                                                   
------------------------|------------------------| 
----------3-------------|----------3-------------| 
--0----0-------0-----0--|--2----2--2----2-----0--| 
--x----x----------0-----|--0---------------0-----| 
--3----3----------------|------------------------| 
------------------------|------------------------| 
 
 
                                                   
------------------------|------------------------| 
----------3-------------|----------3-------------| 
---------------0-----0--|---------------0-----0--| 
--0----0----------0-----|--0----0----------0-----| 
--x----x----------------|--x----x----------------| 
--3----3----------------|--3----3----------------| 
 
 
                                                   
------------------------|------------------------| 
----------3-------------|----------3-------------| 
--0----0-------0-----0--|--2----2--2----2-----0--| 
--x----x----------0-----|--0---------------0-----| 
--3----3----------------|------------------------| 
------------------------|------------------------| 
 
 
                                                   
------------------------|------------------------| 
----------3-------------|----------3-------------| 
---------------0-----0--|---------------0-----0--| 
--0----0----------0-----|--0----0----------0-----| 
--x----x----------------|--x----x----------------| 
--3----3----------------|--3----3----------------| 
 
 
                                                   
------------------------|------------------------| 
----------3-------------|----------3-------------| 
--0----0-------0-----0--|--2----2--2----2-----0--| 
--x----x----------0-----|--0---------------0-----| 
--3----3----------------|------------------------| 
------------------------|------------------------| 
 
 
                                                   
------------------------|------------------------| 
----------0-------------|----------3-------------| 
---------------0-----0--|--2----2--2----2-----0--| 
--2----2----------2-----|--0---------------0-----| 
--x----x----------------|------------------------| 
--0----0----------------|------------------------| 
 
 
                                                   
------------------------|------------------------| 
----------3-------------|----------3-------------| 
--0----0-------0-----0--|---------------0-----0--| 
--x----x----------0-----|--0----0----------0-----| 
--3----3----------------|--x----x----------------| 
------------------------|--3----3----------------| 
 
 
                                                   
------------------------|------------------------| 
----------0-------------|----------3-------------| 
---------------0-----0--|--2----2--2----2-----0--| 
--2----2----------2-----|--0---------------0-----| 
--x----x----------------|------------------------| 
--0----0----------------|------------------------| 
 
 
                                                   
------------------------|------------------------| 
----------3-------------|----------3-------------| 
--0----0-------0-----0--|---------------0-----0--| 
--x----x----------0-----|--0----0----------0-----| 
--3----3----------------|--x----x----------------| 
------------------------|--3----3----------------| 
 
 
                                                   
------------------------|------------------------| 
----------0-------------|----------3-------------| 
---------------0-----0--|---------------0-----0--| 
--2----2----------2-----|--0----0----------0-----| 
--x----x----------------|--x----x----------------| 
--0----0----------------|--3----3----------------| 
 
 
                                                   
------------------------|------------------------| 
----------0-------------|----------3-------------| 
---------------0-----0--|---------------0-----0--| 
--2----2----------2-----|--0----0----------0-----| 
--x----x----------------|--x----x----------------| 
--0----0----------------|--3----3----------------| 
 
 
                                                   
------------------------|------------------------| 
----------0-------------|----------3-------------| 
---------------0-----0--|--2----2--2----2-----0--| 
--2----2----------2-----|--0---------------0-----| 
--x----x----------------|------------------------| 
--0----0----------------|------------------------| 
 
 
                                                   
------------------------|------------------------| 
----------3-------------|--3----3----3--3--3--3--| 
---------------0-----0--|--0----0----0--0--0--0--| 
--0----0----------0-----|--0----0----0--0--0--0--| 
--x----x----------------|--x----x----x--x--x--x--| 
--3----3----------------|--3----3----3--3--3--3--| 
 
 
                                                   
------------------------|------------------------| 
----3--3----3--3--3--3--|--3----3----3--3--3--3--| 
----0--0----0--0--0--0--|--0----0----0--0--0--2--| 
----0--0----0--0--0--0--|--x----x----x--x--x--0--| 
----x--x----x--x--x--x--|--3----3----3--3--3-----| 
----3--3----3--3--3--3--|------------------------| 
 
 
                                                   
------------------------|------------------------| 
----3--3----3--3--3--3--|--3----3----3--3--3--3--| 
----2--2----2--2--2--2--|--0----0----0--0--0--0--| 
----0--0----0--0--0--0--|--0----0----0--0--0--0--| 
------------------------|--x----x----x--x--x--x--| 
------------------------|--3----3----3--3--3--3--| 
 
 
                                                   
------------------------|------------------------| 
----3--3----3--3--3--3--|--3----3----3--3--3--3--| 
----0--0----0--0--0--0--|--0----0----0--0--0--2--| 
----0--0----0--0--0--0--|--x----x----x--x--x--0--| 
----x--x----x--x--x--x--|--3----3----3--3--3-----| 
----3--3----3--3--3--3--|------------------------| 
 
 
                                                   
------------------------|--0----0----0--0--0-----| 
----3--3----3--3--3--3--|--0----0----0--0--0--3--| 
----2--2----2--2--2--2--|--0----0----0--0--0--2--| 
----0--0----0--0--0--0--|--2----2----2--2--2--0--| 
------------------------|--2----2----2--2--2-----| 
------------------------|--0----0----0--0--0-----| 
 
 
                                                   
------------------------|------------------------| 
----3--3----3--3--3--3--|--3----3----3--3--3--3--| 
----2--2----2--2--2--2--|--0----0----0--0--0--0--| 
----0--0----0--0--0--0--|--x----x----x--x--x--0--| 
------------------------|--3----3----3--3--3--x--| 
------------------------|---------------------3--| 
 
 
                                                   
------------------------|--0----0----0--0--0-----| 
----3--3----3--3--3--3--|--0----0----0--0--0--3--| 
----0--0----0--0--0--0--|--0----0----0--0--0--2--| 
----0--0----0--0--0--0--|--2----2----2--2--2--0--| 
----x--x----x--x--x--x--|--2----2----2--2--2-----| 
----3--3----3--3--3--3--|--0----0----0--0--0-----| 
 
 
                                                   
------------------------|------------------------| 
----3--3----3--3--3--3--|--3----3----3--3--3--3--| 
----2--2----2--2--2--2--|--0----0----0--0--0--0--| 
----0--0----0--0--0--0--|--x----x----x--x--x--0--| 
------------------------|--3----3----3--3--3--x--| 
------------------------|---------------------3--| 
 
 
                                                   
------------------------|--0----0----0--0--0-----| 
----3--3----3--3--3--3--|--0----0----0--0--0--3--| 
----0--0----0--0--0--0--|--0----0----0--0--0--0--| 
----0--0----0--0--0--0--|--2----2----2--2--2--0--| 
----x--x----x--x--x--x--|--2----2----2--2--2--x--| 
----3--3----3--3--3--3--|--0----0----0--0--0--3--| 
 
 
                                                   
------------------------|--0----0----0--0--0-----| 
----3--3----3--3--3--3--|--0----0----0--0--0--3--| 
----0--0----0--0--0--0--|--0----0----0--0--0--0--| 
----0--0----0--0--0--0--|--2----2----2--2--2--0--| 
----x--x----x--x--x--x--|--2----2----2--2--2--x--| 
----3--3----3--3--3--3--|--0----0----0--0--0--3--| 
 
 
                                                   
------------------------|--0----0----0--0--0-----| 
----3--3----3--3--3--3--|--0----0----0--0--0--3--| 
----0--0----0--0--0--0--|--0----0----0--0--0--2--| 
----0--0----0--0--0--0--|--2----2----2--2--2--0--| 
----x--x----x--x--x--x--|--2----2----2--2--2-----| 
----3--3----3--3--3--3--|--0----0----0--0--0-----| 
 
 
                                                  
------------------------|-----------------------| 
----3--3----3--3--3--3--|--3----3----3--3--3----| 
----2--2----2--2--2--2--|--0----0----0--0--0----| 
----0--0----0--0--0--0--|--0----0----0--0--0----| 
------------------------|--x----x----x--x--x----| 
------------------------|--3----3----3--3--3----| 
 
 
                                                   
------------------------|------------------------| 
--3----3----3--3--3--3--|----3--3----3--3--3--3--| 
--0----0----0--0--0--0--|----0--0----0--0--0--0--| 
--0----0----0--0--0--0--|----0--0----0--0--0--0--| 
--x----x----x--x--x--x--|----x--x----x--x--x--x--| 
--3----3----3--3--3--3--|----3--3----3--3--3--3--| 
 
 
                                                   
------------------------|------------------------| 
--3----3----3--3--3--3--|----3--3----3--3--3--3--| 
--0----0----0--0--0--2--|----2--2----2--2--2--2--| 
--x----x----x--x--x--0--|----0--0----0--0--0--0--| 
--3----3----3--3--3-----|------------------------| 
------------------------|------------------------| 
 
 
                                                   
------------------------|------------------------| 
--3----3----3--3--3--3--|----3--3----3--3--3--3--| 
--0----0----0--0--0--0--|----0--0----0--0--0--0--| 
--0----0----0--0--0--0--|----0--0----0--0--0--0--| 
--x----x----x--x--x--x--|----x--x----x--x--x--x--| 
--3----3----3--3--3--3--|----3--3----3--3--3--3--| 
 
 
                                                   
------------------------|------------------------| 
--3----3----3--3--3--3--|----3--3----3--3--3--3--| 
--0----0----0--0--0--2--|----2--2----2--2--2--2--| 
--x----x----x--x--x--0--|----0--0----0--0--0--0--| 
--3----3----3--3--3-----|------------------------| 
------------------------|------------------------| 
 
 
                                                   
--0----0----0--0--0-----|------------------------| 
--0----0----0--0--0--3--|----3--3----3--3--3--3--| 
--0----0----0--0--0--2--|----2--2----2--2--2--2--| 
--2----2----2--2--2--0--|----0--0----0--0--0--0--| 
--2----2----2--2--2-----|------------------------| 
--0----0----0--0--0-----|------------------------| 
 
 
                                                   
------------------------|------------------------| 
--3----3----3--3--3--3--|----3--3----3--3--3--3--| 
--0----0----0--0--0--0--|----0--0----0--0--0--0--| 
--x----x----x--x--x--0--|----0--0----0--0--0--0--| 
--3----3----3--3--3--x--|----x--x----x--x--x--x--| 
---------------------3--|----3--3----3--3--3--3--| 
 
 
                                                   
--0----0----0--0--0-----|------------------------| 
--0----0----0--0--0--3--|----3--3----3--3--3--3--| 
--0----0----0--0--0--2--|----2--2----2--2--2--2--| 
--2----2----2--2--2--0--|----0--0----0--0--0--0--| 
--2----2----2--2--2-----|------------------------| 
--0----0----0--0--0-----|------------------------| 
 
 
                                                   
------------------------|------------------------| 
--3----3----3--3--3--3--|----3--3----3--3--3--3--| 
--0----0----0--0--0--0--|----0--0----0--0--0--0--| 
--x----x----x--x--x--0--|----0--0----0--0--0--0--| 
--3----3----3--3--3--x--|----x--x----x--x--x--x--| 
---------------------3--|----3--3----3--3--3--3--| 
 
 
                                                   
--0----0----0--0--0-----|------------------------| 
--0----0----0--0--0--3--|----3--3----3--3--3--3--| 
--0----0----0--0--0--0--|----0--0----0--0--0--0--| 
--2----2----2--2--2--0--|----0--0----0--0--0--0--| 
--2----2----2--2--2--x--|----x--x----x--x--x--x--| 
--0----0----0--0--0--3--|----3--3----3--3--3--3--| 
 
 
                                                   
--0----0----0--0--0-----|------------------------| 
--0----0----0--0--0--3--|----3--3----3--3--3--3--| 
--0----0----0--0--0--0--|----0--0----0--0--0--0--| 
--2----2----2--2--2--0--|----0--0----0--0--0--0--| 
--2----2----2--2--2--x--|----x--x----x--x--x--x--| 
--0----0----0--0--0--3--|----3--3----3--3--3--3--| 
 
 
                                                   
--0----0----0--0--0-----|------------------------| 
--0----0----0--0--0--3--|----3--3----3--3--3--3--| 
--0----0----0--0--0--2--|----2--2----2--2--2--2--| 
--2----2----2--2--2--0--|----0--0----0--0--0--0--| 
--2----2----2--2--2-----|------------------------| 
--0----0----0--0--0-----|------------------------| 
 
 
                                                  
-----------------------|------------------------| 
--3----3----3--3--3----|--3----3----3--3--3--3--| 
--0----0----0--0--0----|--0----0----0--0--0--0--| 
--0----0----0--0--0----|--0----0----0--0--0--0--| 
--x----x----x--x--x----|--x----x----x--x--x--x--| 
--3----3----3--3--3----|--3----3----3--3--3--3--| 
 
 
                                                   
------------------------|------------------------| 
----3--3----3--3--3--3--|--3----3----3--3--3--3--| 
----0--0----0--0--0--0--|--0----0----0--0--0--2--| 
----0--0----0--0--0--0--|--x----x----x--x--x--0--| 
----x--x----x--x--x--x--|--3----3----3--3--3-----| 
----3--3----3--3--3--3--|------------------------| 
 
 
                                                   
------------------------|------------------------| 
----3--3----3--3--3--3--|--3----3----3--3--3--3--| 
----2--2----2--2--2--2--|--0----0----0--0--0--0--| 
----0--0----0--0--0--0--|--0----0----0--0--0--0--| 
------------------------|--x----x----x--x--x--x--| 
------------------------|--3----3----3--3--3--3--| 
 
 
                                                   
------------------------|------------------------| 
----3--3----3--3--3--3--|--3----3----3--3--3--3--| 
----0--0----0--0--0--0--|--0----0----0--0--0--2--| 
----0--0----0--0--0--0--|--x----x----x--x--x--0--| 
----x--x----x--x--x--x--|--3----3----3--3--3-----| 
----3--3----3--3--3--3--|------------------------| 
 
 
                                                   
------------------------|--0----0----0--0--0-----| 
----3--3----3--3--3--3--|--0----0----0--0--0--3--| 
----2--2----2--2--2--2--|--0----0----0--0--0--2--| 
----0--0----0--0--0--0--|--2----2----2--2--2--0--| 
------------------------|--2----2----2--2--2-----| 
------------------------|--0----0----0--0--0-----| 
 
 
                                                   
------------------------|------------------------| 
----3--3----3--3--3--3--|--3----3----3--3--3--3--| 
----2--2----2--2--2--2--|--0----0----0--0--0--0--| 
----0--0----0--0--0--0--|--x----x----x--x--x--0--| 
------------------------|--3----3----3--3--3--x--| 
------------------------|---------------------3--| 
 
 
                                                   
------------------------|--0----0----0--0--0-----| 
----3--3----3--3--3--3--|--0----0----0--0--0--3--| 
----0--0----0--0--0--0--|--0----0----0--0--0--2--| 
----0--0----0--0--0--0--|--2----2----2--2--2--0--| 
----x--x----x--x--x--x--|--2----2----2--2--2-----| 
----3--3----3--3--3--3--|--0----0----0--0--0-----| 
 
 
                                                   
------------------------|------------------------| 
----3--3----3--3--3--3--|--3----3----3--3--3--3--| 
----2--2----2--2--2--2--|--0----0----0--0--0--0--| 
----0--0----0--0--0--0--|--x----x----x--x--x--0--| 
------------------------|--3----3----3--3--3--x--| 
------------------------|---------------------3--| 
 
 
                                                   
------------------------|------------------------| 
----3--3----3--3--3--3--|----------3-------------| 
----0--0----0--0--0--0--|---------------0-----0--| 
----0--0----0--0--0--0--|--0----0----------0-----| 
----x--x----x--x--x--x--|--x----x----------------| 
----3--3----3--3--3--3--|--3----3----------------| 
 
 
                                                   
------------------------|------------------------| 
----------3-------------|----------3-------------| 
---------------0-----0--|--0----0-------0-----0--| 
--0----0----------0-----|--x----x----------0-----| 
--x----x----------------|--3----3----------------| 
--3----3----------------|------------------------| 
 
 
                                                   
------------------------|------------------------| 
----------3-------------|----------3-------------| 
--2----2--2----2-----0--|---------------0-----0--| 
--0---------------0-----|--0----0----------0-----| 
------------------------|--x----x----------------| 
------------------------|--3----3----------------| 
 
 
                                                   
------------------------|------------------------| 
----------3-------------|----------3-------------| 
---------------0-----0--|--0----0-------0-----0--| 
--0----0----------0-----|--x----x----------0-----| 
--x----x----------------|--3----3----------------| 
--3----3----------------|------------------------| 
 
 
                                               
------------------------|-------------------|| 
----------3-------------|--3----------------|| 
--2----2--2----2-----0--|--0----------------|| 
--0---------------0-----|--0----------------|| 
------------------------|--x----------------|| 
------------------------|--3----------------|| 
 
 
 
 
less
plus
Add to Songbook Print Version How to play lesson Submit videolesson
Click the best TAGS for this song:
None of them
Contributor: robeLiqu Correct

If you can not find the chords or tabs you want, look at our partner E-chords. If you are a premium member, you have total access to our video lessons.

If you find a wrong Bad To Me from Green Day, click the correct button above.

login/signup
my songbooks
my recent views
my submits