Green Day

Homecoming (ver. 2) chords

Green Day

tools Ultimate Tabs

Start AutoScroll Font Size Down Font Size Up

Find us on Facebook

chords
tabs
bass
ukulele keyboards
drums
flute
harmonica
guitar pro
video
Ultimate-Tabs

Homecoming (ver. 2)

Homecoming 
 
 
The death of St Jimmy 
 
riff 1 6x 
e|--------------------------------------------------|  
B|--------------------------------------------------|  
G|----------------7--6----------------------7--6----|  
D|-x-7-7-2--2-2-2-7--6-7-7-xx--7-7-2--2-2-2-7--6-7--|         
A|-x-7-7-2--2-2-2-5--4-7-7-xx--7-7-2--2-2-2-5--4-7--|  
E|-x-5-5-0--0-0-0------5-5-xx--5-5-0--0-0-0---- -5--|  
  
riff 2  
e|-----------------------------------------------------|  
B|-----------------------------------------------------|  
G|-----------------------------------------------------|     
D|-2-2-2-2-2-2-7-7-7-7-7--7p6---7p6-----2-2-2-2-2-2-7--|          
A|-2-2-2-2-2-2-7-7-7-7-7------7-----7---2-2-2-2-2-2-7--|  
E|-0-0-0-0-0-0-5-5-5-5-5----------------0-0-0-0-0-0-5--|  
  
riff 3  
e|-----------------------|  
B|-----------------------|  
G|-7--7-7-7-7------------|  
D|-7--7-7-7-7-7-7-5-5-2--|  
A|-5--5-5-5-5-7-7-5-5-2--|  
E|------------5-5-3-3-0--|  
  
riff 4 
e|---------------------------|  
B|---------------------------|  
G|-----7-----------7---7-----|  
D|-7---7---2---7---7-7-7---2-|  
A|-7---5---2---7---5-7-5---2-|  
E|-5-------0---5-----5-----0-|  
  
riff 5 5x 
e|-----------------------------------------|  
B|-----------------------------------------|  
G|--------7-----------------7---7----------|  
D|-7-7-7--7--2-2-2-2--7-7-7-7-7-7-2-2-2-2--|  
A|-7-7-7--5--2-2-2-2--7-7-7-5-7-5-2-2-2-2--|  
E|-5-5-5-----0-0-0-0--5-5-5---5---0-0-0-0--|  
  
riff 6 3x  
e|---------------------|  
B|---------------------|  
G|---------------------|  
D|-4--4--4--6--7-7-7-7-|  
A|-4--4--4--6--7-7-7-7-|  
E|-2--2--2--4--5-5-5-5-|  
  
riff 7   
e|--------------------|  
B|--------------------|  
G|-7-7-----9-9-9-9-9--|  
D|-7-7-7-7-9-9-9-9-9--|  
A|-5-5-7-7-7-7-7-7-7--|  
E|-----5-5------------|  
 
riff 5 3x 
e|-----------------------------------------|  
B|-----------------------------------------|  
G|--------7-----------------7---7----------|  
D|-7-7-7--7--2-2-2-2--7-7-7-7-7-7-2-2-2-2--|  
A|-7-7-7--5--2-2-2-2--7-7-7-5-7-5-2-2-2-2--|  
E|-5-5-5-----0-0-0-0--5-5-5---5---0-0-0-0--|  
 
riff 6 3x  
e|-----------------------|  
B|-----------------------|  
G|-----------------------|  
D|-4--4--4--6--7-7-7-7---|  
A|-4--4--4--6--7-7-7-7---|  
E|-2--2--4--4--5-5-5-5---|  
 
riff 7   
e|--------------------|  
B|--------------------|  
G|-7-7-----9-9-9-9-9--|  
D|-7-7-7-7-9-9-9-9-9--|  
A|-5-5-7-7-7-7-7-7-7--|  
E|-----5-5------------|  
 
East 12 St.  
   
riff 1   
e|----------------------|  
B|----------------------|  
G|-------------7--------|  
D|-7-7-7-7-7-7-7-7-5-7--|  
A|-7-7-7-7-7-7-5-7-5-7--|  
E|-5-5-5-5-5-5---5-3-5--|  
  
riff 2 x11  
e|--------------|  
B|--------------|  
G|---7----------|  
D|-7-7-7-5-7-7--|  
A|-7-5-7-5-7-7--|  
E|-5---5-3-5-5--|  
 
riff 3 x4  
e|----------------------------------|  
B|----------------------------------|  
G|-7-7-7-7-----7-7------------------|  
D|-7-7-7-7-5-5-7-7-5-5-5-5-7-7-7-7--|  
A|-5-5-5-5-5-5-5-5-5-5-5-5-7-7-7-7--|  
E|---------3-3-----3-3-3-3-5-5-5-5--|  
 
riff 4 x4  
e|-2-2-2-2-2-3-2-0-2--|  
B|-3-3-3-3-3-3-3-3-3--|  
G|-2-2-2-2-2-2-2-2-2--|  
D|--------------------|  
A|--------------------|  
E|--------------------|  
  
riff 5 4x 
e|-----------| 
B|-----------| 
G|--5--------| 
D|--5----7---| 
A|--3----7---| 
E|-------5---| 
 
riff 6 x4  
e|------------------------|  
B|------------------------|  
G|-5-5-5-5-5--------------|  
D|-5-5-5-5-5-7-7-7-7-7-7--|  
A|-3-3-3-3-3-7-7-7-7-7-7--|  
E|-----------5-5-5-5-5-5--|  
  
riff 7   
e|-------------------------------------|  
B|-------------------------------------|  
G|-7---5-----------7--7--7----5-7----7-|  
D|-7---5---5---7---7--7--7--7-5-7----7-|  
A|-5---3---5---7---5--5--5--7-3-5----5-|  
E|---------3---5------------5----------|  
   
  
Nobody likes you 
   
intro: D many times 
 
riff 1 4x 
e|-------------------------------------------------|  
B|-------------------------------------------------|  
G|-7-7-7-7-7-7-------------------------------------|  
D|-7-7-7-7-7-7-7-7-7-7-7-7-5-5-5-5-5-5-7-7-7-7-7-7-|  
A|-5-5-5-5-5-5-7-7-7-7-7-7-5-5-5-5-5-5-7-7-7-7-7-7-|  
E|-------------5-5-5-5-5-5-3-3-3-3-3-3-5-5-5-5-5-5-|  
 
riff 3  
e|--------------------------------------------------------------------------|  
B|--------------------------------------------------------------------------|  
G|-------------------------------------4-4-4-4-4-4-6-6-6-6-6-6-7-7-7-7-7-7--|  
D|-9-9-9-9-9-9-7-7-7-7-7-7-5-5-5-5-5-5-4-4-4-4-4-4-6-6-6-6-6-6-7-7-7-7-7-7--|  
A|-9-9-9-9-9-9-7-7-7-7-7-7-5-5-5-5-5-5-2-2-2-2-2-2-4-4-4-4-4-4-5-5-5-5-5-5--|  
E|-7-7-7-7-7-7-5-5-5-5-5-5-3-3-3-3-3-3--------------------------------------| 
 
riff 1 4x 
e|-------------------------------------------------|  
B|-------------------------------------------------|  
G|-7-7-7-7-7-7-------------------------------------|  
D|-7-7-7-7-7-7-7-7-7-7-7-7-5-5-5-5-5-5-7-7-7-7-7-7-|  
A|-5-5-5-5-5-5-7-7-7-7-7-7-5-5-5-5-5-5-7-7-7-7-7-7-|  
E|-------------5-5-5-5-5-5-3-3-3-3-3-3-5-5-5-5-5-5-|  
 
 D 
  
Rock and Roll Girlfriend  
     
riff 1 3x  
e|--------------------------------------------------------------------------------|  
B|--------------------------------------------------------------------------------|  
G|-7-7-7-9-9-9------------------------------------7-7-7-7-7-7-7-7-7-7-7-7-7-7-7-7-|  
D|-7-7-7-9-9-9----7-7-7-7-7-7-7-7-7-7-7-7-7-7-7-7-7-7-7-7-7-7-7-7-7-7-7-7-7-7-7-7-|  
A|-5-5-5-7-7-7----7-7-7-7-7-7-7-7-7-7-7-7-7-7-7-7-5-5-5-5-5-5-5-5-5-5-5-5-5-5-5-5-|  
E|----------------5-5-5-5-5-5-5-5-5-5-5-5-5-5-5-5---------------------------------|  
  
e|-----------------------------------------------------------------|  
B|-----------------------------------------------------------------|  
G|---------------------------------9-9-9-9-9-9-9-9-9-9-9-9-9-9-9-9-|  
D|-7-7-7-7-7-7-7-7-7-7-7-7-7-7-7-7-9-9-9-9-9-9-9-9-9-9-9-9-9-9-9-9-|  
A|-7-7-7-7-7-7-7-7-7-7-7-7-7-7-7-7-7-7-7-7-7-7-7-7-7-7-7-7-7-7-7-7-|  
E|-5-5-5-5-5-5-5-5-5-5-5-5-5-5-5-5---------------------------------|  
  
riff 2 
e|----------------------------| 
B|----------------------------| 
G|-------------------------7--| 
D|-5-5-7-7-5-5-7-7---7-7-7-7--| 
A|-5-5-7-7-5-5-7-7---7-7-7-5--| 
E|-3-3-5-5-3-3-5-5---5-5-5----| 
 
 
We?re coming home again  
 
riff 1 x4  
e|--------------------------------|  
B|--------------------------------|  
G|-7-7-x-x-7-7-x-x----------------|  
D|-7-7-x-x-7-7-x-x-9-9-x-x-5-5-7--|  
A|-5-5-x-x-5-5-x-x-9-9-x-x-5-5-7--|  
E|-----------------7-7-x-x-3-3-5--|  
 
riff 2  
e|---------|  
B|---------|  
G|---------|  
D|-5----7--|  
A|-5----7--|  
E|-3----5--|  
  
riff 3 2x 
e|------------------------------------------------|  
B|------------------------------------------------|  
G|-7----------------------------------------------|  
D|-7-7--5--5--5--5--7--7--7--7--5--5--5--5--7--7--|  
A|-5-7--5--5--5--5--7--7--7--7--5--5--5--5--7--7--|  
E|---5--3--3--3--3--5--5--5--5--3--3--3--3--5--5--|  
 
riff 4  
e|----------------------------------|  
B|----------------------------------|  
G|-----------9-9-9-9-9-9-9-9-9-9-9--|  
D|-9-9-9-9-9-9-9-9-9-9-9-9-9-9-9-9--|  
A|-9-9-9-9-7-7-7-7-7-7-7-7-7-7-7-7--|  
E|-7-7-7-7--------------------------|  
  
 
riff 5 x2  
e|---------------------------------------------------------|  
B|---------------------------------------------------------|  
G|-7-7-7-7---------7-7-7-7------------------------------7--|  
D|-7-7-7-7-7-7-7-7-7-7-7-7-7-7-7-7-5-5-5-5-7-7-7-7--5-7-7--|  
A|-5-5-5-5-7-7-7-7-5-5-5-5-7-7-7-7-5-5-5-5-7-7-7-7--5-7-5--|  
E|---------5-5-5-5---------5-5-5-5-3-3-3-3-5-5-5-5--3-5----|  
  
riff 1 2x 
e|--------------------------|  
B|--------------------------|  
G|--7-------------7---------|  
D|--7------7------7------7--|  
A|--5------7------5------7--|  
E|---------5-------------5--|  
  
riff 2  
e|--------------------------|  
B|--------------------------|  
G|---------7----------------|  
D|--5------7------5------7--|  
A|--5------5------5------7--|  
E|--3-------------3------5--|  
  
riff 1 2x 
e|--------------------------|  
B|--------------------------|  
G|--7-------------7---------|  
D|--7------7------7------7--|  
A|--5------7------5------7--|  
E|---------5-------------5--|  
 
riff 3 4x 
e|-------------------------------------------------------------------------------| 
B|-------------------------------------------------------------------------------| 
G|-7--7-7-7-7--7-7-7-7--7-7-7-7-7-7-7-7-7----------------------------------------| 
D|-7--7-7-7-7--7-7-7-7--7-7-7-7-7-7-7-7-7-7--7-7-7-7--7-7-7-7-7-7-7-5-5-5-5-5-5--| 
A|-5--5-5-5-5--5-5-5-5--5-5-5-5-5-5-5-5-5-7--7-7-7-7--7-7-7-7-7-7-7-5-5-5-5-5-5--| 
E|----------------------------------------5--5-5-5-5--5-5-5-5-5-5-5-3-3-3-3-3-3--| 
   
 
D 
 
 
less
plus
Add to Songbook Print Version How to play lesson Submit videolesson
Click the best TAGS for this song:
None of them
Contributor: Ryzaeds8 Correct

If you can not find the chords or tabs you want, look at our partner E-chords. If you are a premium member, you have total access to our video lessons.

If you find a wrong Bad To Me from Green Day, click the correct button above.

login/signup
my songbooks
my recent views
my submits