Green Day

Longview bass

Green Day

Album:Bullet in a Bible

Year:2005

tools Ultimate Tabs

Start AutoScroll Font Size Down Font Size Up

Find us on Facebook

Ultimate-Tabs

Longview

Tabbed by: Dave(based on Mike Cox but his Tab was in Drop D and I 
                made this on so it isn'tit's a lot Easier that way
 
  
Album: Dookie


Intro
G-------------------------------------------------------
D-------------------------------------------------------
A-18/--------------------------------------------------- 
E-------------------------------------------------------


Verse1: do until Chorus
                   G---------------------------------8-6-5-6---------------
                   D-----8-6-5-----6-5-------8-6-5---0-0-0-0---------------
                   A-4-6-------6-4-----4-8-6--------------------------------
                   E-------------------------------------------------------



                      -------------3 TIMES-----------Chorus:
G-------------------------------------------------------
D-------------------------------------------------------
A-------------------------6-x-6-x-----------------------
E-6-x-6-x-6-x-6-x-4-x-4-x-------------------------------



Do this The 4th Time
G-------------------------------------------------------
D-------------------------------------------------------
A---------------------------------5/--------------------
E-6-x-6-x-6-x-6-x-4-4-4-4-4-4-4-4-----------------------



                    -----------do 2 times-------- Verse 2:
                   G----8-----------6-5-3-1------------------------------
                   D------6h7h8-6---0-0-0-0------------------------------
                   A--6----------------------------------------------------
                   E-------------------------------------------------------
After 2nd time go back too VERSE1


Bridge
G-------------------------------------------------------
D---8-6-5-------4----------------------------------------
A-6-------4-3-2----------------------------------------
E-------------------------------------------------------
"I've got no motivation, where is my motivation..."

order of Riffs
Main riff    6x
Chorus
2nd Verse    2x
Main riff    4x
Chorus
Bridge       4x
Chorus
2nd Verse    6x
Main riff    2x
Chorus       2x
2nd Verse
 
less
plus
Add to Songbook Print Version How to play lesson Submit videolesson
Click the best TAGS for this song:
None of them
Contributor: jherswee Correct

If you can not find the chords or tabs you want, look at our partner E-chords. If you are a premium member, you have total access to our video lessons.

If you find a wrong Bad To Me from Green Day, click the correct button above.

login/signup
my songbooks
my recent views
my submits