Green Day

Xmas Time Of The Year tab

Green Day

tools Ultimate Tabs

Start AutoScroll Font Size Down Font Size Up

Find us on Facebook

chords
tabs
bass
ukulele
keyboards
drums
flute
harmonica
guitar pro
video
Ultimate-Tabs

Xmas Time Of The Year

Solo tabs not accurate for 100% but I've tried !

    e|-2-| 
    B|-2-| 
G - G|-0-| 
    D|-0-| 
    A|-2-| 
    E|-3-| 

    e|-2-|
    B|-2-|
C - G|-0-|
    D|-2-|
    A|-3-|
    E|---|

    e|-2-|
    B|-3-|
    G|-2-|
D - D|-0-|
    A|---|
    E|---|

      e|-3-|
      B|-4-|
C#m - G|-5-|
      D|-5-|
      A|-3-|
      E|---|


Use power-chords in the choruse!

Intro:

G C 
G C



G       C                  G
Seasons greeting cards and Christmas
C            D      G
Lights light up the city
C      D          G            D
At the end of the year

G         C        G
This time I got no resolutions
C      D          G 
Giving thanks for nothing
C       D        G
But joy into the year

C                            G
Tonight friends are what its worth
                  D
Peace and love on Earth
            C#m
And another year giving thanks again
 
G                C                   G
The sleigh bells deck the halls with good will
C     D          G
Say a prayer the lost souls
C         D           G   
Christmas time of the year


e|------------------------10-10-10-10---------------------12---------------------------------------------------|
B|10~~~-------------------10-10-10-10-----------12--------12-17b--17-17-17-15-17-15----------------------------|
G|12b(2 tones)12b(2 tones)-----------14b-14b-14-12--------14b----------------------14-12--12-14-14b-12---------|
D|------------------------------------------------12-14-17------------------------------14------------12-7-7b-5|
A|-------------------------------------------------------------------------------------------------------------|
E|-------------------------------------------------------------------------------------------------------------|

C                            G
Tonight friends are what its worth
                  D
Peace and love on Earth
            C#m                        G
And another year giving thanks again 
G         C                G            
Somewhere around a plastic manger
C      D         G  
Giving thanks to strangers
C         D           G
Christmas time of the year


e|--------------------|
B|--8---12-8-8--------|
G|-7-9-9------9-7p9-9-|
D|-------------------9|
A|--------------------|
E|--------------------|


less
plus
Add to Songbook Print Version How to play lesson Submit videolesson
Click the best TAGS for this song:
None of them
Contributor: milokaip Correct

If you can not find the chords or tabs you want, look at our partner E-chords. If you are a premium member, you have total access to our video lessons.

If you find a wrong Bad To Me from Green Day, click the correct button above.

login/signup
my songbooks
my recent views
my submits