Greg Howe

Bach mock tab

Greg Howe

chords
tabs
bass
ukulele
keyboards
drums
flute
harmonica
guitar pro
video
Ultimate-Tabs

Bach mock

  H    Q  E  S  S    S S  S  S  S S  S  S  S  S  S  S  S  S  S  S 
|-----------16-15-|-16--------------16-15----------12-11----------| 
|-----------------|-----------------------17-16-14-------11-------| 
|-----------------|-----------------------------------------12----| 
|-----------------|------18-17-18------------------------------13-| 
|-----------------|-----------------------------------------------| 
|-----------------|-----------------------------------------------| 
 
 
   S S  S  S  S S S S S S S S S S S S   S S S S S  S S S S S S S S S S  S 
|-------------------------------------|-------4-7-11---------6-9----------| 
|-----------------9-8-------5-4-------|-----4--------9-----8-----8--------| 
|-13------------------9-8-6-----3-----|---4------------8-6---------6------| 
|---------------------------------5---|-6----------------------------8----| 
|------11-10-11---------------------6-|--------------------------------10-| 
|-------------------------------------|-----------------------------------| 
 
 
   S S S S S  S S S S  S S  S  S S  S  S 
|----------7-11----------9-12------------| 
|--------9------9-----11------11---------| 
|------8----------8-9------------9-------| 
|----9-----------------------------11----| 
|-11----------------------------------13-| 
|----------------------------------------| 
 
 
   S S S S S S S S S S S S  S  S  S  S 
|------------------------7-11-14-------| 
|--------------5-7-----7---------12----| 
|------8-9---6-------8--------------11-| 
|----9-----8-------9-------------------| 
|-11-----------------------------------| 
|--------------------------------------| 
 
 
   S  S  S  S  S  S  S  S  S  S  S S E S S 
|-16-----------------------------------4-3-| 
|----17------------------------------------| 
|-------18---------------------------------| 
|----------18----------------------8-6-----| 
|-------------19-18-16-14-13-11-10---------| 
|------------------------------------------| 
 
 
  S S S S S S S S S S S S  S  S  S  S 
|-4-----------4-3-4-6-7-9-11-12-15----| 
|----------------------------------16-| 
|-------------------------------------| 
|-----6-5-6---------------------------| 
|-------------------------------------| 
|-------------------------------------| 
 
 
   S S  S  S  S S  S  S  S  S  S  S  S  S  S  S 
|-16--------------16-15----------12-11----------| 
|-----------------------17-16-14-------11-------| 
|-----------------------------------------12----| 
|------18-17-18------------------------------13-| 
|-----------------------------------------------| 
|-----------------------------------------------| 
 
 
   S  S  S  S  S  S  S  S  S  S  S  S  S  S  S  S 
|-------11-16-------------------------------------| 
|----12-------16-------------------14-------------| 
|-13-------------16-------------15----15----------| 
|-------------------18-------17----------17-------| 
|----------------------18-16----------------16----| 
|----------------------------------------------18-| 
 
 
   S  S  S  S  S  S S S S  S S  S  S S  S  S 
|----------------11----------9-12------------| 
|-------------12----9-----11------11---------| 
|----------13---------8-9------------9-------| 
|-------13-----------------------------11----| 
|----14-----------------------------------13-| 
|-16-----------------------------------------| 
 
 
   S S S S S S S S S S S S  S  S  S  S 
|------------------------7-11-14-------| 
|--------------5-7-----7---------12----| 
|------8-9---6-------8--------------11-| 
|----9-----8-------9-------------------| 
|-11-----------------------------------| 
|--------------------------------------| 
 
 
   S  S  S  S  S  S  S  S  S  S  S S Q 
|-16------------------------------------| 
|----17---------------------------------| 
|-------18------------------------------| 
|----------18----------------------8-6--| 
|-------------19-18-16-14-13-11-10------| 
|---------------------------------------| 
 
 
  S S S S  S  S  S  S  S  S  S  S  S  S  S  S 
|-----2-7-11-14-------14-----------------------| 
|---4-----------12-------14--------------------| 
|-4----------------11-------15-----------------| 
|------------------------------16--------------| 
|---------------------------------16-------13--| 
|------------------------------------18-14-----| 
 
 
   S  S  S  S  S  S  S  S  S  S  S  S  S  S  S  S 
|-------------11-14-------12----------------------| 
|----------12-------12-------14-------------------| 
|-------11-------------11-------15----------------| 
|----13----------------------------14-------------| 
|-14----------------------------------16-------13-| 
|----------------------------------------18-14----| 
 
 
   S S S S  S  S  S  S  S  S  S  S  S S  S  S 
|--------9-12-16----------------12------------| 
|------9---------14----------14----11---------| 
|----9--------------13----15----------9-------| 
|-11-------------------14---------------11----| 
|------------------------------------------13-| 
|---------------------------------------------| 
 
 
   S  S  S  S  S  S  S  S  S  S  S  S S S S  S 
|-------------11-14----------------11----------| 
|----------12-------12----------12----9--------| 
|-------11-------------11----13---------8------| 
|----13-------------------13--------------9----| 
|-14----------------------------------------11-| 
|----------------------------------------------| 
 
 
   S  S S  S S  S  S S  S  S  S S S S S  S 
|------------9-12---------------9----------| 
|---------11------11---------11---8--------| 
|-------9------------9----12--------6------| 
|----11----------------11-------------8----| 
|-13------------------------------------10-| 
|------------------------------------------| 
 
 
   S S S S S S S S S S  S  S  S  S  S  S 
|----------7-6-4-3-4-7-11-16-------------| 
|--------9-------------------16----------| 
|------8------------------------17-------| 
|----9-----------------------------16----| 
|-11----------------------------------18-| 
|----------------------------------------| 
 
 
   S  S  S  S  S  S  S  S  S  S  S  S  S S  S  S 
|-------------12-16----------------12------------| 
|----------14-------14----------14----11---------| 
|-------13-------------13----15----------9-------| 
|----14-------------------14---------------11----| 
|-16------------------------------------------13-| 
|------------------------------------------------| 
 
 
   S  S  S  S  S  S  S  S  S  S  S  S S S S  S 
|-------------11-14----------------11----------| 
|----------12-------12----------12----9--------| 
|-------11-------------11----13---------8------| 
|----13-------------------13--------------9----| 
|-14----------------------------------------11-| 
|----------------------------------------------| 
 
 
  Q=114              Q=80 
   S  S S  S S  S  S S  S  S  S S S S S  S 
|------------9-12---------------9----------*| 
|---------11------11---------11---8--------*| 
|-------9------------9----12--------6------*| 
|----11----------------11-------------8----*| 
|-13------------------------------------10-*| 
|------------------------------------------*| 
 
 
 
less
plus
Add to Songbook Print Version How to play lesson Submit videolesson
Click the best TAGS for this song:
None of them
Contributor: grunsims Correct

If you can not find the chords or tabs you want, look at our partner E-chords. If you are a premium member, you have total access to our video lessons.

If you find a wrong Bad To Me from Greg Howe, click the correct button above.

login/signup
my songbooks
my recent views
my submits