S Guns N' Roses

Nightrain tab

Guns N' Roses

Album:Live Era '87-'93

Year:1999

tools Ultimate Tabs

Start AutoScroll Font Size Down Font Size Up

Find us on Facebook

Ultimate-Tabs

Nightrain

Guitar 1 
                                                                
|D#||------------------|-------------------|--------------x--3--|| 
|A#||------------------|-------------------|--------------------|| 
|F#||------------------|--2----------------|--------------------|| 
|C#||------------------|--2----------------|--------------------|| 
|G#||------------------|--0----------------|--------------------|| 
|D#||------------------|-------------------|--------------------|| 
 
Guitar 2 
 
|D#||------------------|-------------------|--------------------|| 
|A#||------------------|-------------------|-----------------8--|| 
|F#||------------------|-------------------|-----------------9--|| 
|C#||------------------|--7----------------|-----------------7--|| 
|G#||------------------|--7----------------|--------------0-----|| 
|D#||------------------|--5----------------|--------------------|| 
 
Guitar 1 
 
----3--2p-0--------0----|------------------0--|----0--0----0----------| 
----------0--7\-5--5----|---------------3/-5--|----5--3----3/-1--1----| 
------------------------|---------------------|-----------------------| 
------------------------|---------------------|-----------------------| 
------------------------|---------------------|-----------------------| 
------------------------|---------------------|-----------------------| 
                                                                     
Guitar 2 
 
----------------------|----------------------|--------------------1--| 
----8--7----7----5----|--5------------xx--5--|----5--3----3-------1--| 
----9--7----7----5----|--5------------xx--5--|----5--4----4-------2--| 
----7--7----7----5----|--5------------xx--5--|----5--5----5----3-----| 
----------------------|----------------------|-----------------------| 
----------------------|----------------------|-----------------------| 
 
Guitar 1 
 
---------------------|-----------------------|-----------------------| 
--1------------x--3--|----3\-1----1-----0----|--1----0---------------| 
---------------------|-----------------------|------------2----0--2--| 
---------------------|-----------------------|-----------------------| 
---------------------|-----------------------|-----------------------| 
---------------------|-----------------------|-----------------------| 
 
Guitar 2 
 
--1---------------3--|-----------------------|-----------------------| 
--1---------------3--|----3--3----3-----3----|--3----3---------------| 
--2---------------0--|----0--4----5-----4----|--5----4----2----0--2--| 
---------------3/-5--|----5--5----5-----5----|--5----5----2----0--2--| 
---------------------|-----------------------|--------------------0--| 
---------------------|-----------------------|-----------------------| 
 
 
Guitar 1 
                                                                  
------------------|---------------------|----3--2p-0--------0----| 
------------------|--------------x--8---|----------0--7\-5--5----| 
------------------|---------------------|------------------------| 
------------------|---------------------|------------------------| 
------------------|---------------------|------------------------| 
------------------|---------------------|------------------------| 
 
Guitar  2 
 
------------------|----------------------|----------------------| 
------------------|------------------8---|----8--7----7----5----| 
------------------|------------2--x--9---|----9--7----7----5----| 
------------------|------------2--x--7---|----7--7----7----5----| 
------------------|------------0--x------|----------------------| 
------------------|----------------------|----------------------| 
 
Guitar 1 
                                                                    
-----------------0--|----0--0----0-----------|---------------------| 
--------------3/-5--|----5--3----3/-1---1----|--1------------x--3--| 
--------------------|------------------------|---------------------| 
--------------------|------------------------|---------------------| 
--------------------|------------------------|---------------------| 
--------------------|------------------------|---------------------| 
 
Guitar 2 
 
---------------------|---------------------1--|--1---------------3--| 
--5------------x--5--|----5--3----3--------1--|--1---------------3--| 
--5------------x--5--|----5--4----4--------2--|--2---------------0--| 
--5------------x--5--|----5--5----5-----3-----|---------------3/-5--| 
---------------------|------------------------|---------------------| 
---------------------|------------------------|---------------------| 
 
 
Guitar 1 
                                                                    
----------------------|------------------------|-------------------| 
----3\-1----1----0----|--1----0----------------|-------------------| 
----------------------|------------2-----0--2--|--2----------------| 
----------------------|------------------------|-------------------| 
----------------------|------------------------|-------------------| 
----------------------|------------------------|-------------------| 
 
Guitar 2 
 
----------------------|------------------------|------------------| 
----3--3----3----3----|--3----3----------------|------------------| 
----0--4----5----4----|--5----4----2-----0--2--|------------------| 
----5--5----5----5----|--5----5----2-----0--2--|------------------| 
----------------------|---------------------0--|------------------| 
----------------------|------------------------|------------------| 
 
Guitar 1 (verse) 
 
------------------|-------------------------|------------------------| 
------------------|-------------------------|------------------------| 
------------------|----x--2----2--2--2---2--|----x--2----2--2--2--2--| 
------------------|----x--2----2--2--2---2--|----x--2----2--2--2--2--| 
------------------|----x--0----0--0--0---0--|----x--0----0--0--0--0--| 
------------------|-------------------------|------------------------| 
 
------------------------|-------------------------|------------------------| 
------------------------|-------------------------|------------------------| 
----x--2----2--2--2--2--|----x--2----2---2--2--2--|----x--2----2--2--2--2--| 
----x--2----2--2--2--2--|----x--2----2---2--2--2--|----x--2----2--2--2--2--|  x 4 
----x--0----0--0--0--0--|----x--0----0---0--0--0--|----x--0----0--0--0--0--| 
------------------------|-------------------------|------------------------| 
 
------------------|-------------------||------------------------| 
------------------|----------------8--||------7p-5--7\-5--5p-3--| 
------------------|----------------9--||------7p-5--7\-5--5p-4--| 
------------------|----------------7--||------------------------| 
------------------|-------------------||------------------------| 
------------------|-------------------||------------------------| 
 
------------------------|---------------------|---------------------| 
--1----0----------------|---------------------|---------------------| 
--2----0----2--0-----2~-|------2------22------|--2--------2r--------| 
------------------2-----|---------------------|------------------7--| 
------------------------|---------------------|------------------7--| 
------------------------|---------------------|------------------5--| 
 
 
------------------------|-------------------------|------------------------| 
------------------------|-------------------------|------------------------| 
----x--2----2--2--2--2--|----x--2----2---2--2--2--|----x--2----2--2--2--2--| 
----x--2----2--2--2--2--|----x--2----2---2--2--2--|----x--2----2--2--2--2--| 
----x--0----0--0--0--0--|----x--0----0---0--0--0--|----x--0----0--0--0--0--| 
------------------------|-------------------------|------------------------| 
 
 
                                                                            
------------------------|-------------------------|---------------------2--| 
------------------------|-------------------------|---------------------3--| 
----x--2----2--2--2--2--|----x--2----2---2--2--2--|----x--2----2--2--2--2--| 
----x--2----2--2--2--2--|----x--2----2---2--2--2--|----x--2----2--2--2--0--| 
----x--0----0--0--0--0--|----x--0----0---0--0--0--|----x--0----0--0--0-----| 
------------------------|-------------------------|------------------------| 
Guitar 2 (verse) 
 
---------------------|------------------------|-----------------------| 
---------------------|------------------------|-----------------------| 
------------2-----2--|------2----2---------2--|------2----2-----------| 
------------2-----2--|------2----2---------2--|------2----2-----------| 
------------0-----0--|------0----0---------0--|------0----0--------3b-| 
---------------3-----|--------------0---3-----|--------------0--3-----| 
 
 
                                                                          
------------------------|------------------------|-----------------------| 
------------------------|------------------------|-----------------------| 
---------------2-----2--|------2----2---------2--|------2----2--------2--| 
---------------2-----2--|------2----2---------2--|------2----2--------2--| 
------0--------0-----0--|------0----0---------0--|------0----0--------0--| 
---------0--3-----3-----|---------------0--3-----|--------------0--3-----| 
 
 
                                                                         
-----------------------|-------------------------|----------------------| 
-----------------------|-------------------------|----------------------| 
------2----2-----------|------2---------2-----2--|----------7r-7--5--2--| 
------2----2-----------|------2---------2-----2--|-------------------2--| 
------0----0--------3b-|------0---------0-----0--|-------------------0--| 
--------------0--3-----|---------0--3------3-----|----------------------| 
 
 
                                                                          
-----------------------|------------------------|------------------------| 
-----------------------|------------------------|------------------------| 
------2----2--------2--|------2----2------------|-------2----2--------2--| 
------2----2--------2--|------2----2------------|-------2----2--------2--| 
------0----0--------0--|------0----0---------3b-|----0--0----0--------0--| 
--------------0--3-----|--------------00--3-----|---------------3--0-----| 
 
 
                                                                          
-----------------------|------------------------|---------------------2--| 
-----------------------|------------------------|---------------------3--| 
------2----2--------2--|------2----2------------|-------2----2--------2--| 
------2----2--------2--|------2----2------------|-------2----2--------0--| 
------0----0--------0--|------0----0---------3b-|----0--0----0-----------| 
--------------0--3-----|--------------00--3-----|---------------3--0-----| 
 
 
                                                                 
------------------|---------------0-----|------0----------0-----| 
------------------|------------7/-8-----|------7----7\-5--5\-3--| 
------------------|---------------------|-----------------------| 
------------------|---------------------|-----------------------| 
------------------|---------------------|-----------------------| 
------------------|---------------------|-----------------------| 
 
 
                                                                      
--0----0-----0-----------|-------------------|-----------------------| 
--5----3\-1--1-----------|-------------------|-----------------------| 
----------------2--0--2--|-------------------|------x--14------x--2--| 
----------------2--0--2--|-------------------|------x--14------x--2--| 
----------------------0--|-------------------|------x--12------x--0--| 
-------------------------|-------------------|-----------------------| 
 
 
                                                                          
-----------------------|------------------------|------------------------| 
-----------------------|------------------------|------------------------| 
------2----2--------2--|------2----2------------|---------------2-----2--| 
------2----2--------2--|------2----2------------|---------------2-----2--| 
------0----0--------0--|------0----0---------3b-|------0--------0-----0--| 
--------------0--3-----|--------------00--3-----|---------0--3-----3-----| 
 
 
                                                                          
-----------------------|------------------------|---------------------2--| 
-----------------------|------------------------|---------------------3--| 
------2----2--------2--|------2----2---------2--|-------2----2--------2--| 
------2----2--------2--|------2----2---------2--|-------2----2--------0--| 
------0----0--------0--|------0----0---------0--|----0--0----0-----------| 
--------------0--3-----|--------------00--3-----|---------------3--0-----| 
 
 
 
 
Guitar 1 (chorse) 
                                                                 
------------------|----------------3--||----3--2p-0--------0----| 
------------------|-------------------||----------0--7\-5--5----| 
------------------|-------------------||------------------------| 
------------------|-------------------||------------------------| 
------------------|-------------------||------------------------| 
------------------|-------------------||------------------------| 
 
 
                                                                    
-----------------0--|----0--0----0-----------|---------------------| 
--------------3/-5--|----5--3----3/-1---1----|--1------------x--3--| 
--------------------|------------------------|---------------------| 
--------------------|------------------------|---------------------| 
--------------------|------------------------|---------------------| 
--------------------|------------------------|---------------------| 
 
 
                                                                           
----------------------|------------------------| 
----3\-1----1----0----|--1----0----------------| 
----------------------|------------2-----0--2--| 
----------------------|------------------------| 
----------------------|------------------------| 
----------------------|------------------------| 
 
Guitar 2 (chorse) 
 
------------------|-------------------||----------------------| 
------------------|----------------8--||----8--7----7----5----| 
------------------|----------------9--||----9--7----7----5----| 
------------------|----------------7--||----7--7----7----5----| 
------------------|-------------------||----------------------| 
------------------|-------------------||----------------------| 
 
 
                                                                     
---------------------|---------------------1--|--1---------------3--| 
--5------------x--5--|----5--3----3--------1--|--1---------------3--| 
--5------------x--5--|----5--4----4--------2--|--2---------------0--| 
--5------------x--5--|----5--5----5-----3-----|---------------3/-5--| 
---------------------|------------------------|---------------------| 
---------------------|------------------------|---------------------| 
 
----------------------|------------------------| 
----3--3----3----3----|--3----3----------------| 
----0--4----5----4----|--5----4----2-----0--2--| 
----5--5----5----5----|--5----5----2-----0--2--| 
----------------------|---------------------0--| 
----------------------|------------------------| 
 
Both Guitars 
 
|--------------------------| 
|--------------------------| 
|--5--5--5--5--5--5--5--5--| 
|--5--5--5--5--5--5--5--5--| 
|--3--3--3--3--3--3--3--3--| 
 
                                                                             
--------------------------|-------------------------|-------------------------| 
--------------------------|--------------------------|-------------------------| 
--------------------------|-----------------------2--|----------------------2--| 
--5--5--5--5--5--2--5--7--|----------2------2-----2--|----------2-----2-----2--| 
--5--5--5--5--5--2--5--7--|----0--3b-0---3b-0-----0--|----0--3b-0--3b-0-----0--| 
--3--3--3--3--3--0--3--5--|--------------------3-----|-------------------3-----| 
 
 
                                                                               
-------------------------|--------------------------|-------------------------| 
-------------------------|--------------------------|-------------------------| 
----------------------2--|-----------------------2--|----------------------2--| 
----------2-----2-----2--|----------2------2-----2--|----------2-----2-----2--| 
----0--3b-0--3b-0-----0--|----0--3b-0---3b-0-----0--|----0--3b-0--3b-0-----0--| 
-------------------3-----|--------------------3-----|-------------------3-----| 
 
 
                                                                               
-------------------------|--------------------------|-------------------------| 
-------------------------|--------------------------|-------------------------| 
-------------------------|--------------------------|----------------------2--| 
----------2--------------|--------------------------|----------------------2--| 
----0--3b-0--3b-0--------|-------3--2---3--2--0-----|-------3--2--3--2-----0--| 
-------------------3--1~-|----1------------------3~-|----3--------------3-----| 
 
 
                                                                               
-------------------------|--------------------------|-------------------------| 
-------------------------|--------------------------|-------------------------| 
----------------------2--|-----------------------2--|----------------------2--| 
----------2-----2-----2--|----------2------2-----2--|----------2-----2-----2--| 
----0--3b-0--3b-0-----0--|----0--3b-0---3b-0-----0--|----0--3b-0--3b-0-----0--| 
-------------------3-----|--------------------3-----|-------------------3-----| 
 
 
                                                                               
-------------------------|--------------------------|-------------------------| 
-------------------------|--------------------------|----------------------3--| 
----------------------2--|-----------------------2--|----------------------2--| 
----------2-----2-----2--|----------2------2-----2--|----------2-----2-----0--| 
----0--3b-0--3b-0-----0--|----0--3b-0---3b-0-----0--|----0--3b-0--3b-0--------| 
-------------------3-----|--------------------3-----|-------------------3-----| 
 
 
Guitar Solo   ( guitar 1 )                                                              
------------------|------------------|--------------------7--7--| 
------------------|------------------|-----7-----7-----7--7--7--| 
------------------|------------------|--------9b----9b----------| 
------------------|------------------|--------------------------| 
------------------|------------------|--------------------------| 
------------------|------------------|--------------------------| 
 
 
                                                                            
--------------------------|------------------------|-------------------10--| 
-----7-----7-----7--7--9b-|--9r---9r----9r---7--9--|--7--9--7~-------------| 
--9b----9b----9b-------9b-|--9r---9r----9r---7--9--|--7--9--7~-------------| 
--------------------------|------------------------|-----------------------| 
--------------------------|------------------------|-----------------------| 
--------------------------|------------------------|-----------------------| 
 
 
                                                       
----9--7------------------|---------------------------| 
----------10--9--7--------|---------------------------| 
--------------------9--9b-|--9r--7-7--99--7-----------| 
--------------------------|------------------9--7--9\-| 
--------------------------|---------------------------| 
--------------------------|---------------------------| 
 
 
                                                                                
--------------------------|------------------------|--10-------------------10--| 
--------------------------|------------------------|--10---------10----10--10--| 
--------------------------|------------------------|--9b----9b---9r----7---9b--| 
--7--7\-5--5\-4--4\-2--2--|--0--4----5-----6/---7--|---------------------------| 
--------------------------|-----4----5-----6/---7--|---------------------------| 
--------------------------|-----2----3-----4/---5--|---------------------------| 
 
 
                                                          
------10------------------|--------9--112r---------------| 
------10----10----10------|----10----------12----10--12--| 
------9b----9r----7/--11--|------------------------------| 
--------------------------|------------------------------| 
--------------------------|------------------------------| 
--------------------------|------------------------------| 
 
 
                                                                 
----------------------------10--|----100--------------10----13/-| 
--12b-12p10-----------------10--|----100--------------10----12/-| 
------------11------11----------|---------12--10h-11------------| 
------------------------12------|-------------------------------| 
--------------------------------|-------------------------------| 
--------------------------------|-------------------------------| 
 
 
                                     
--14--10---------------------------| 
--13--10-----------------------17b-| 
----------12r--10-12--10h11-x------| 
-----------------------------------| 
-----------------------------------| 
-----------------------------------| 
 
 
                                                                           
---14----------------------------------------|----------------------------| 
------17p14----------------------------------|----------------------------| 
------------16r-14----16p14------------------|----------------------------| 
-------------------16-------16-14------------|----------------------------| 
----------------------------------16-144\13--|--------------13----12------| 
---------------------------------------------|--------14-14----14---------| 
 
 
                                                                           
------------------------|--------------------------|----------------------| 
--7----7--6/-7----7--6/-|--7----7-----77/-9/---10--|------9----9\-7\---5--| 
------------------------|--------------------------|----------------------| 
--7----7--6/-7----7--6/-|--7----7--0--77/-9/---11--|------9----9\-7\---6--| 
------------------------|--------------------------|----------------------| 
------------------------|--------------------------|----------------------| 
 
 
                                                                             
----------------------|-------4--5--------------|---------------------------| 
----5\-4\---2---------|-------------5r----2--5--|---------------------------| 
-------------------4--|--4b---------------------|--4r--2-4--2--4b-4p2-------| 
----6\-4\---2---------|-------------------------|---------------------4--4b-| 
----------------------|-------------------------|---------------------------| 
----------------------|-------------------------|---------------------------| 
 
 
                                                                   
--------------------|----------------------|----------------------| 
--------------------|----------------------|----------------------| 
--------------------|----------------------|----------------------| 
----------4\-2r-----|----------------------|----------------------| 
--------------------|----------------------|----------------------| 
--------------------|------------0--1---2--|----------x--2--1--0--| 
 
 
                                                                    
-------0------0--1--2--|------2----0--22--1--0--|------------------| 
-------0------0--1--2--|------2----0--22--1--0--|------------------| 
-----------------------|------------------------|------------------| 
-----------------------|------------------------|------------------| 
-----------------------|------------------------|------------------| 
----x------------------|------------------------|------------------| 
 
 
During Guitar Solo Guitar 2 Does: 
 
 
                                                                    
------------------|----------------------|-------------------------| 
------------------|--12------------------|-------------------------| 
------------------|--12------------------|-------------------------| 
------------------|------------------4---|----2--4--x--2--4--x--4--| 
------------------|------------------2---|----0--2--x--0--2--x--2--| 
------------------|----------------------|-------------------------| 
 
 
                                                                            
-------------------------|--------------------------|----------------------| 
-------------------------|--------------------------|----------------------| 
-------------------------|--------------------------|----------------------| 
----2--4--x--4-----------|--------------------------|-------------------4--| 
----0--2--x--2--2--3--4--|----2--4--x---2--4--x--4--|----2--4----4------2--| 
----------------0--1--2--|----0--2--x---0--2--x--2--|----0--2----2---------| 
 
 
                                                                               
-------------------------|--------------------------|-------------------------| 
-------------------------|--------------------------|-------------------------| 
-------------------------|--------------------------|-------------------------| 
----2--4--x--2--4--x--4--|----2--4--x---4-----------|-------------------------| 
----0--2--x--0--2--x--2--|----0--2--x---2--2--3--4--|----2--4--x--2--4--x--4--| 
-------------------------|-----------------0--1--2--|----0--2--x--0--2--x--2--| 
 
 
                                                                      
----------------------|-----------------------|----------------------| 
----------------------|-----------------------|----------------------| 
----------------------|--7--------7--7-----7--|--7--------7--7-------| 
----4----5----6----7--|--7--------7--7-----7--|--7--------7--7----4--| 
----4----5----6----7--|--5--------5--5-----5--|--5--------5--5----4--| 
----2----3----4----5--|-----------------------|-------------------2--| 
 
 
                                                                    
---------------------|----------------------|----------------------| 
---------------------|----------------------|----------------------| 
---------------------|-------------------7--|--7--------7--7----7--| 
----------4--4----4--|----------4--4-----7--|--7--------7--7----7--| 
----------4--4----4--|----------4--4-----5--|--5--------5--5----5--| 
----------2--2----2--|----------2--2--------|----------------------| 
 
 
                                                                    
----------------------|----------------------|---------------------| 
----------------------|----------------------|---------------------| 
--7--------7--7-------|----------------------|------------------7--| 
--7--------7--7----4--|----------4--4-----4--|----------4--4----7--| 
--5--------5--5----4--|----------4--4-----4--|----------4--4----5--| 
-------------------2--|----------2--2-----2--|----------2--2-------| 
 
 
                                                                     
----------------------|-----------------------|---------------------| 
----------------------|-----------------------|---------------------| 
--7--------7--7----7--|--7--------7--7--------|---------------------| 
--7--------7--7----7--|--7--------7--7-----4--|----------4--4----4--| 
--5--------5--5----5--|--5--------5--5-----4--|----------4--4----4--| 
----------------------|--------------------2--|----------2--2----2--| 
 
 
                                                                      
---------------------|-----------------------|-----------------------| 
---------------------|-----------------------|-----------------------| 
------------------7--|--7--------7--7-----7--|------7----7-----------| 
----------4--4----7--|--7--------7--7-----7--|------7----7-----------| 
----------4--4----5--|--5--------5--5-----5--|------5----5--2--3--4--| 
----------2--2-------|-----------------------|--------------0--1--2--| 
 
 
                                                                               
-------2-----------------|-------0------------------|-------2-----------------| 
-------2-----------------|-------0------------------|-------2-----------------| 
-------------------------|--------------------------|-------------------------| 
-------------------------|--------------------------|-------------------------| 
----4-----4--4--4--3--2--|----2-----2---2--2--3--4--|----4-----4--4--4--3--2--| 
----2-----2--2--2--1--0--|----0-----0---0--0--1--2--|----2-----2--2--2--1--0--| 
 
 
                                                                          
-------0-----------------|-------2------------------|-------0------------| 
-------0-----------------|-------2------------------|-------0------------| 
-------------------------|--------------------------|--------------------| 
-------------------------|--------------------------|--------------------| 
----2-----2--2--2--3--4--|----4-----4---4--4--3--2--|----2---------------| 
----0-----0--0--0--1--2--|----2-----2---2--2--1--0--|----0---------------| 
 
 
Guitar 1 
 
-------------------|------------------------|---------------------------| 
--7/---------------|--10------------14---8--|--8--8--7-----7--x-x-7\-5~-| 
--7/---------------|--10------------14---9--|--9--9--7-----7--x-x-7\-5~-| 
--7/---------------|--10------------14---7--|--7--7--7-----7--x-x-7\-5~-| 
-------------------|------------------------|-----------0---------------| 
-------------------|------------------------|---------------------------| 
 
 
                                                                         
--------------------|-----------------------------|------------------3--| 
--------------------|-----------------------------|------------------3--| 
-----------------5--|------4--x-x-4-x-xx-x----10--|--------------x-x-0--| 
-----------------7--|------5--x-x-5-x-xx-x----10--|--------------x-x-0--| 
--------------------|----------------------8--8---|---------------------| 
--------------0-----|-----------------------------|------------------3--| 
 
 
                                                                      
-------------------------|-----------------------|-------------------| 
------5------5-----------|-----------------------|-------------------| 
------5------5-----4--5--|------4----2~~---0--2--|--------------2~---| 
------5------5-----5--5--|------5----2~~---0-----|-------------------| 
---------x-x-------------|-----------------------|-------------------| 
---------x-x----3--------|-----------------------|-------------------| 
 
 
                                                                         
------------------|---------------------------|-------------------------| 
------------------|---------------------------|-------------------------| 
------------------|--2---------------------2--|-------------------------| 
------------------|--2---------------------2--|-------------------------| 
------------------|--0--0--3--0--3--0------0--|----0--3--0--3--0--------| 
------------------|---------------------3-----|-------------------3--1--| 
 
 
                                                                               
-------------------------|--------------------------|-------------------------| 
-------------------------|--------------------------|-------------------------| 
-------------------------|--------------------------|-------------------------| 
-------------------------|--------------------------|-------------------------| 
-------3--2--3--2--0-----|-------3--2---3--2--0-----|-------3--2--3--2--0-----| 
----1-----------------1--|----1------------------3--|----3-----------------3--| 
 
 
                                                                             
-------------------------|------------------------|-------------------------| 
-------------------------|------------------------|-------------------------| 
----------------------2--|------------------------|----------------------2~-| 
----------------------2--|------------------------|-------------------------| 
-------3--2--3--2-----0--|------------------3--5--|--5r--3-5--5b-3~---0-----| 
----3--------------3-----|--3b-----5-----5--------|-------------------------| 
 
 
                                                                    
-----------------------|--------------------|----------------------| 
-----------------------|--------------------|----------------------| 
------2--2--2--2--2b---|--------------22----|------2----2--2--2b---| 
-----------------------|--------------------|----------------------| 
-----------------------|--------------------|----------------------| 
-----------------------|--------------------|----------------------| 
 
 
                                                                         
----------------------|-------------------------|-----------------------| 
----------------------|-------------------------|-----------------------| 
------2~-----5--5--4~-|------4--4--4--44--4/-7~-|------7----7\-5--5/-9b-| 
----------------------|-------------------------|-----------------------| 
----------------------|-------------------------|-----------------------| 
----------------------|-------------------------|-----------------------| 
 
 
                                                                                
----------------------------|---------------------------|----------------------| 
----------------------------|---------------------------|-------------------8b-| 
--------9b---9----9-11p9----|--9---------------------7b-|------7--7r-----5-----| 
---------------12--------12-|----12p10------------------|----------------------| 
----------------------------|-----------12--------------|----------------------| 
----------------------------|---------------------------|----------------------| 
 
 
                                                                   
-------------------|-----------------------|----8-----------8-----| 
-------------------|--------------------8b-|-------8b-------------| 
----------------7b-|------7----7~---5------|-------------------7b-| 
-------------------|-----------------------|----------------------| 
-------------------|-----------------------|----------------------| 
-------------------|-----------------------|----------------------| 
 
 
                                                                             
----------------------|----5----------------------|-------------------------| 
-------------------5b-|-------8--5----------------|-------------------------| 
------7----7~---5-----|-------------7b--7p5-------|-------------------------| 
----------------------|---------------------7--7--|----5--------------------| 
----------------------|---------------------------|-------7--6--5--3--5--3--| 
----------------------|---------------------------|-------------------------| 
 
 
                                                                        
------------------------|------------------------|------------5-8------| 
------------------------|---------------------8b-|----------------8b---| 
---------------------7b-|------7----7---7--5-----|---------------------| 
------------------------|------------------------|---------------------| 
--5b-5p3----5b----------|------------------------|---------------------| 
---------5--------------|------------------------|---------------------| 
 
 
                                                                             
----------8-------------|--------x--8-----10----|---------------------------| 
------8b----8r---5--10b-|-----------------------|--10b---10b---10r---8--13b-| 
------------------------|-----------------------|---------------------------| 
------------------------|-----------------------|---------------------------| 
------------------------|-----------------------|---------------------------| 
------------------------|-----------------------|---------------------------| 
 
 
                                   
---------------------------------| 
-----13b----13--12--13--12h13p12p| 
---------------------------------| 
---------------------------------| 
---------------------------------| 
---------------------------------| 
 
 
                                                  
-------------------------------------------------| 
--10----12----10h12p10----10-----10--------------| 
-----12----12----------12----12b----12--9--------| 
------------------------------------------12r-10-| 
-------------------------------------------------| 
-------------------------------------------------| 
 
 
                                                                
----------------------------------------|----------------------| 
----------------------------------------|----------------------| 
----------------------------------------|----------------------| 
-----12----10---------------------------|----------------------| 
--12----12----12p10----10---------------|----------------------| 
--------------------12----10\-8----10b--|----8--3b---5~-----5--| 
 
 
                                                             
--------------------------|---------------------------------| 
--------------------------|---------------------------------| 
--------------------------|-----------------------7------9--| 
--------------------------|------7--10---9h10p9p7----10-----| 
--5b-5p3-5--5--3--5----8~-|---------------------------------| 
--------------------------|---------------------------------| 
 
 
                                               
----------------------------------------------| 
------------------------------------------10h-| 
------7--9--10/-12--9h-10p9----9-10--122------| 
--10------------------------12----------------| 
----------------------------------------------| 
----------------------------------------------| 
 
 
                                                    
----------------------10------12------110--12--13--| 
--12p10----10-12--13------13------13---------------| 
--------12-----------------------------------------| 
---------------------------------------------------| 
---------------------------------------------------| 
---------------------------------------------------| 
 
 
                                                                           
--12h13p12p10----10--13r---13b--13--|---12--13--12h13p12p10-12~---10--13--| 
--------------13--------------------|-------------------------------------| 
------------------------------------|-------------------------------------| 
------------------------------------|-------------------------------------| 
------------------------------------|-------------------------------------| 
------------------------------------|-------------------------------------| 
 
 
                                                                             
--12h13p12p10-12\10p8----10----7h8h10p88p7-8-----|--------------------------| 
----------------------10----10---------------12b-|------12~---12~---10--10~-| 
-------------------------------------------------|--------------------------| 
-------------------------------------------------|--------------------------| 
-------------------------------------------------|--------------------------| 
-------------------------------------------------|--------------------------| 
 
 
                                                              
------------------10-----------|-----------12----15----15----| 
------10--13b--------13p10h13b-|-----------------------------| 
-------------------------------|-----------------------------| 
-------------------------------|-----------------------------| 
-------------------------------|-----------------------------| 
-------------------------------|-----------------------------| 
 
 
                                                               
----------------------------15~-|---------12------------------| 
--15b-15p13-15--12r-----10/-----|-----------------16----15----| 
--------------------------------|-----------------------------| 
--------------------------------|-----------------------------| 
--------------------------------|-----------------------------| 
--------------------------------|-----------------------------| 
 
 
                                                           
------12-15-13h15p13p12----13----12h13pp12----12-------12-| 
--15b-------------------15----15-----------15----13-15----| 
----------------------------------------------------------| 
----------------------------------------------------------| 
----------------------------------------------------------| 
----------------------------------------------------------| 
 
 
                                                                           
---------------------------------------------------|------15--------------| 
--15p13-15p13-12----13----12h13p12----112-13-15-15b|----------15b---------| 
-----------------14----14----------14--------------|----------------------| 
---------------------------------------------------|----------------------| 
---------------------------------------------------|----------------------| 
---------------------------------------------------|----------------------| 
 
 
                                                                                
------------------|------------------|-------------------|--------------------|| 
------------------|------------------|-------------------|--13----------------|| 
------------------|------------------|-------------------|--12----------------|| 
------------------|------------------|-------------------|--11----------------|| 
------------------|------------------|-------------------|--12----------------|| 
------------------|------------------|-------------------|--------------------|| 
 
During Guitar 1 Outro Solo Guitar 2 does : 
--------------------------|---------------------------|--------------------| 
--------------------------|---------------------------|--------------------| 
--7--7--7--7--7--7--7--7--|--7--7--7--77--7--5--2--2--|------2----------2--| 
--7--7--7--7--7--7--7--7--|--7--7--7--77--7--5--2--2--|------2----------2--| 
--5--5--5--5--5--5--5--5--|--5--5--5--55--5--3--0--0--|------0----------0--| 
--------------------------|---------------------------|--------------------| 
 
 
                                                                
--------------------|---------------------|--------------------| 
--------------------|---------------------|--------------------| 
------2-------------|---------------------|--------------------| 
------2----------3--|------3----------33--|------3----------5--| 
------0----------3--|------3----------33--|------3----------5--| 
-----------------1--|------1----------11--|------1----------3--| 
 
 
                                                                
--------------------|---------------------|--------------------| 
--------------------|---------------------|--------------------| 
--------------------|---------------------|-----------------5--| 
------5----------5--|------5----------77--|------7----------5--| 
------5----------5--|------5----------77--|------7----------3--| 
------3----------3--|------3----------55--|------5-------------| 
 
 
                                                                             
----------------------|---------------------------|-------------------------| 
----------------------|---------------------------|-------------------------| 
----------5-----------|--2---------------------2--|-------------------------| 
----------5--2--5--7--|--2---------------------2--|-------------------------| 
----------3--2--5--7--|--0--0--3--0--3---0-----0--|----0--3--0--3--0--------| 
-------------0--3--5--|---------------------3-----|-------------------3--1--| 
 
 
                                                                               
-------------------------|--------------------------|-------------------------| 
-------------------------|--------------------------|-------------------------| 
-------------------------|--------------------------|-------------------------| 
-------------------------|--------------------------|-------------------------| 
-------3--2--3--2--0-----|-------3--2---3--2--0-----|-------3--2--3--2--0-----| 
----1-----------------1--|----1------------------3--|----3-----------------3--| 
 
 
                                                                               
-------------------------|--------------------------|-------------------------| 
-------------------------|--------------------------|-------------------------| 
-------------------------|-----------------------2--|----------------------2--| 
-------------------------|----------2------------2--|----------2-----------2--| 
-------3--2--3--2--------|----0--3--0---3--0-----0--|----0--3--0--3--0-----0--| 
----3--------------3--3--|--------------------3-----|-------------------3-----| 
 
 
                                                                               
-------------------------|--------------------------|-------------------------| 
-------------------------|--------------------------|-------------------------| 
----------------------2--|--------------------------|-------------------------| 
----------------------2--|--------------------------|-------------------------| 
----0--3--0--3--0-----0--|----0--3--0---3--0--------|-------3--2--3--2--0-----| 
-------------------3-----|--------------------3--1--|----1-----------------1--| 
 
 
                                                                               
-------------------------|--------------------------|-------------------------| 
-------------------------|--------------------------|-------------------------| 
-------------------------|--------------------------|----------------------2--| 
-------------------------|--------------------------|----------------------2--| 
-------3--2--3--2--0-----|-------3--2---3--2--0-----|-------3--2--3--2-----0--| 
----1-----------------3--|----3------------------3--|----3--------------3-----| 
 
 
                                                                               
-------------------------|--------------------------|-------------------------| 
-------------------------|--------------------------|-------------------------| 
----------------------2--|-----------------------2--|----------------------2--| 
----------2-----------2--|----------2------------2--|----------------------2--| 
----0--3--0--3--0-----0--|----0--3--0---3--0-----0--|----0--3--0--3--0-----0--| 
-------------------3-----|--------------------3-----|-------------------3-----| 
 
 
                                                                               
-------------------------|--------------------------|-------------------------| 
-------------------------|--------------------------|-------------------------| 
-------------------------|--------------------------|-------------------------| 
-------------------------|--------------------------|-------------------------| 
----0--3--0--3--0--------|-------3--2---3--2--0-----|-------3--2--3--2--0-----| 
-------------------3--1--|----1------------------1--|----1-----------------3--| 
 
 
                                                                               
-------------------------|--------------------------|-------------------------| 
-------------------------|--------------------------|-------------------------| 
-------------------------|-----------------------2--|----------------------2--| 
-------------------------|-----------------------2--|----------2-----------2--| 
-------3--2--3--2--0-----|-------3--2---3--2-----0--|----0--3--0--3--0-----0--| 
----3-----------------3--|----3---------------3-----|-------------------3-----| 
 
 
                                                                               
-------------------------|--------------------------|-------------------------| 
-------------------------|--------------------------|-------------------------| 
----------------------2--|-----------------------2--|-------------------------| 
----------2-----------2--|-----------------------2--|-------------------------| 
----0--3--0--3--0-----0--|----0--3--0---3--0-----0--|----0--3--0--3--0--------| 
-------------------3-----|--------------------3-----|-------------------3--1--| 
 
 
                                                                               
-------------------------|--------------------------|-------------------------| 
-------------------------|--------------------------|-------------------------| 
-------------------------|--------------------------|-------------------------| 
-------------------------|--------------------------|-------------------------| 
-------3--2--3--2--0-----|-------3--2---3--2--0-----|-------3--2--3--2--0-----| 
----1-----------------1--|----1------------------3--|----3-----------------3--| 
less
plus
Add to Songbook Print Version How to play lesson Submit videolesson
Click the best TAGS for this song:
None of them
Contributor: wategwpr Correct

If you can not find the chords or tabs you want, look at our partner E-chords. If you are a premium member, you have total access to our video lessons.

If you find a wrong Bad To Me from Guns N' Roses, click the correct button above.

login/signup
my songbooks
my recent views
my submits