Guns N' Roses

Sweet Child O´Mine chords

Guns N' Roses

chords
tabs
bass
ukulele keyboards drums
flute
harmonica
guitar pro
Ultimate-Tabs

Sweet Child O´Mine

 
E|------------------15-------14--------------| 
B|-------15----------------------------------| 
G|----------14--12-------14--------14--------| 
D|--12-----------------------------------12--|  2X 
A|-------------------------------------------| 
E|-------------------------------------------| 

E|------------------15-------14--------------| 
B|-------15----------------------------------| 
G|----------14--12-------14--------14--------|  2X 
D|--14-----------------------------------14--| 
A|-------------------------------------------| 
E|-------------------------------------------| 

E|------------------15-------14--------------| 
B|-------15----------------------------------| 
G|--12------14--12-------14--------14----12--|  2X 
D|-------------------------------------------| 
A|-------------------------------------------| 
E|-------------------------------------------| 

E|--12------12---14---15--14---12------------| 
B|------15-----------------------------------| 
G|---------------------------------15--------|    
D|-------------------------------------------| 
A|-------------------------------------------| 
E|-------------------------------------------|
Intro: D C G D She's got smile that it seems to me C C9 C reminds me of childhood memories, G D Where everything was as fresh as the bright blue sky D Now and then When I see her face C C9 C she takes me away to that special place, G and if I stared too long, D I'd probably break down and cry Am C D Woah, woah, woah, sweet child o' mine Am C D Woah, oh, oh, oh, sweet love of mine
(Solo 1) -> Base (D C9 G) 
E|--------------------------------------------------------------9--11--9-----| 
B|-9--7--6--6--9--7--6--6---9--7-----9--7------9--7--9--7--9-----------------| 
G|-------------------------------8-8-------8-8----------------------------10-| 
D|---------------------------------------------------------------------------| 
A|---------------------------------------------------------------------------| 
E|---------------------------------------------------------------------------|
D She's got eyes of the bluest skies, C C9 C as if they thought of rain G I hate to look into those eyes D and see anounce of pain D Her hair reminds me of a warm safe place C C9 C where as a child I'd hide, G And pray for the thunder and the rain D to quietly pass me by Am C D Woah, woah, woah, sweet child o' mine Am C D Woah, oh, oh, oh, sweet love o' mine (Solo 2) -> Base (D C G) Am C D Woah, oh, oh, oh, sweet child o' mine 2X Am C D Woah, oh, oh, oh, sweet love o' mine (Solo 3) -> Base (Em C B A) 4x (Em G A C D) 4x Em G Where do we go? Where do we go now? Am C D Where do we go? Em G Where do we go? Where do we go? Am C D Where do we go now? Em G Where do we go? Sweet child, where do we go now? Am C D Where do we go? Em G Where do we go? Where do we go now? Am C D Where do we go? Em G Where do we go? Where do we go? Am C D Where do we go now? E D B Am G F# Em No, no, no, no, no, no, no G Am C D Em Sweet child, sweet chiiilldddd of of mine
less
plus
Add to Songbook Print Version How to play lesson Submit videolesson
Click the best TAGS for this song:
None of them
Contributor: javegdjp Correct

If you can not find the chords or tabs you want, look at our partner E-chords. If you are a premium member, you have total access to our video lessons.

If you find a wrong Bad To Me from Guns N' Roses, click the correct button above.

login/signup
my songbooks
my recent views
my submits