Guns N' Roses

Sweet Child O´Mine tab

Guns N' Roses

tools Ultimate Tabs

Start AutoScroll Font Size Down Font Size Up

Find us on Facebook

chords
tabs
bass
ukulele keyboards drums
flute
harmonica
guitar pro
video
Ultimate-Tabs

Sweet Child O´Mine

" FORNECIDO POR RODRIGO ALBERTO" 
 
E|------------------15-------14--------------| 
B|-------15----------------------------------| 
G|----------14--13-------13--------13--------| 
D|--13-----------------------------------13--|(22x)'no cd no video clipe é 15 vezes' 
A|-------------------------------------------| 
E|-------------------------------------------| 
 
E|--13--11--13---15---16--15---13--11--------| 
B|-------------------------------------------| 
G|-------------------------------------------| 
D|-------------------------------------------| 
A|-------------------------------------------| 
E|-------------------------------------------| 
 
 
Intro: D C G 
 
D 
She's got smile that it seems to me 
   C 
reminds me of childhood memories, 
       G                                          D 
Where everything was as fresh as the bright blue sky 
D 
Now and then When I see her face  
     C 
she takes me away to that special place,  
           G 
and if I stared too long, 
                            D 
I'd probably break down and cry 
 
 A5          C5                    D5 
Woah, woah, woah, sweet child o' mine 
 A5           C5                  D5 
Woah, oh, oh, oh, sweet love of mine 
(Solo 1) -> Base (D C G) 
E|--------------------------------------------------------------9--11--9-----| 
B|-9--7--6--6--9--7--6--6---9--7-----9--7------9--7--9--7--9-----------------| 
G|-------------------------------8-8-------8-8----------------------------10-| 
D|---------------------------------------------------------------------------| 
A|---------------------------------------------------------------------------| 
E|---------------------------------------------------------------------------| 
D 
She's got eyes of the bluest skies, 
   C 
as if they thought of rain 
   G 
I hate to look into those eyes 
     D 
and see anounce of pain 
D 
Her hair reminds me of a warm safe place 
      C 
where as a child I'd hide, 
     G 
And pray for the thunder and the rain 
     D 
to quietly pass me by 
 
 A5          C5                    D5 
Woah, woah, woah, sweet child o' mine 
 A5           C5                  D5 
Woah, oh, oh, oh, sweet love o' mine 
 
(Solo 2) -> Base (D C G) 
 
 A5          C5                    D5 
Woah, oh, oh, oh, sweet child o' mine                2X 
 A5           C5                  D5 
Woah, oh, oh, oh, sweet love o' mine     
  
(Solo 3) -> Base (E C B A) 4x (E G A C D) 4x 
Em               G5 
Where do we go? Where do we go now? 
A5              C5  D5 
Where do we go?  
Em               G5 
Where do we go? Where do we go? 
A5              C5  D5 
Where do we go now?  
Em               G5 
Where do we go? Sweet child, where do we go now? 
A5              C5  D5 
Where do we go?  
Em               G5 
Where do we go? Where do we go now? 
A5              C5  D5 
Where do we go?  
Em               G5 
Where do we go? Where do we go? 
A5              C5  D5 
Where do we go now?  
 
 
E5  D5  B5  A5  G5  F#5  Em 
No, no, no, no, no, no, no 
       G5           A5   C5  D5        Em 
Sweet child, sweet chiiilldddd of of mine 
less
plus
Add to Songbook Print Version How to play lesson Submit videolesson
Click the best TAGS for this song:
None of them
Contributor: trankloc Correct

If you can not find the chords or tabs you want, look at our partner E-chords. If you are a premium member, you have total access to our video lessons.

If you find a wrong Bad To Me from Guns N' Roses, click the correct button above.

login/signup
my songbooks
my recent views
my submits