S Guns N' Roses

Técnica De Slash tab

Guns N' Roses

tools Ultimate Tabs

Start AutoScroll Font Size Down Font Size Up

Find us on Facebook

chords
tabs
bass
ukulele
keyboards
drums
flute
harmonica
guitar pro
video
Ultimate-Tabs

Técnica De Slash

Básicamente todos los solos y riffs de Slash se basan en esta escala, esta es su técnica... 

                   ESCALA PENTATÓNICA DE SOL. 



E----------------1-4-- E-4-1--------------- 
B-------------1-4----- B----3-1------------ 
G----------1-3-------- G------3-1---------- 
D-------1-3----------- D---------3-1------- 
A----1-3-------------- A------------3-1---- 
E-1-4----------------- E--------------4-1-- 


Al principio el sonido no va ser tan convincente, todo lo que deben de hacer es reconocer los tonos, memorizarlos y combinar notas, esto les va hacer facil reconocer las tonadas de slash. 

POR CIERTO: KIRK HAMMETT DE METALLICA UTILIZA MA MISMA ESCALA!!! 

lo que sigue es pasar los sonidos hacia trastes inferioses ejemplo: 



E---------------9-12-- E-12-9---------------- 
B------------9-12----- B----12-9------------- 
G---------9-10-------- G------10-9----------- 
D-------9-10---------- D----------10-9------- 
A----9-10------------- A-------------10-9---- 
E-9-12---------------- E---------------9-12-- 


LO ÚNICO QUE SE HACE ES BAJAR 
DE TRASTES Y YA LA HICIERON 
ASI QUE CON ESTE SECRETO 
YA TODOS SERIAN COMO SLASH... 
PARA Q VEAN Q NO ES TAN BNO... 
 VIVA GERS. SMITH Y MURRAY!!!!  
less
plus
Add to Songbook Print Version How to play lesson Submit videolesson
Click the best TAGS for this song:
None of them
Contributor: ROCAClov Correct

If you can not find the chords or tabs you want, look at our partner E-chords. If you are a premium member, you have total access to our video lessons.

If you find a wrong Bad To Me from Guns N' Roses, click the correct button above.

login/signup
my songbooks
my recent views
my submits