tools Ultimate Tabs

Start AutoScroll Font Size Down Font Size Up

Find us on Facebook

chords
tabs
bass
ukulele
keyboards
drums
flute
harmonica
guitar pro
video
Ultimate-Tabs

Sara Smile

Sara Smile Bass Tab
by Hall & Oates
Transcribed by Thomas Cicatelli

    Intro
G:-------------------------------------------------------|
D:-------------------------------------------------------|
A:-5---------------3----4------5---------------3----4----|
E:------5----3-5-6------------------5----3-5-6-----------|

    Verse (option 1) (2x)
G:------7------------5------------3---------------------------------------|
D:------------------------------------------------------------------------|
A:-5------------3------------1------------0--0--0--0--0--0--0--0----------|
E:------------------------------------------------------------------------|

    Verse (option 2) (2x)
G:------6s7----------4s5----------2s3-------------------------------------|
D:------------------------------------------------------------------------|
A:-5------------3------------1------------0--0--0--0--0--0--0--0----------|
E:------------------------------------------------------------------------|

    Verse (option 3) (2x)
G:------6s7----------4s5----------2s3-------------------------------------|
D:------------------------------------------------------------------------|
A:-5-------5----3-------3----1--------1---0--0--0--0--0--0--0--0----------|
E:------------------------------------------------------------------------|

    Pre-Chorus
G:------------------------------------------------------------------------|
D:------------------------------------------------------------------------|
A:---------3---------------5---------------3---------------5--------------|
E:-3---------------5---------------3---------------5-------------------3--|

    Chorus (same as intro)

    Bridge
G:---------------------------------------------------------------------|
D:---------------------------------------------------------------------|
A:---------------3-----5-----------------0---1----4--------------------|
E:--3---5---6----------------0---1---3---------------------------------|


    Outro (same as intro)
less
plus
Add to Songbook Print Version How to play lesson Submit videolesson
Click the best TAGS for this song:
None of them
Contributor: skamsara Correct

If you can not find the chords or tabs you want, look at our partner E-chords. If you are a premium member, you have total access to our video lessons.

If you find a wrong Bad To Me from Hall And Oates, click the correct button above.

login/signup
my songbooks
my recent views
my submits