S Hawthorne Heights

Language Lessons (five Words Or Less) tab

Hawthorne Heights

Album:If Only You Were Lonely

Year:2006

tools Ultimate Tabs

Start AutoScroll Font Size Down Font Size Up

Find us on Facebook

chords
tabs
bass
ukulele
keyboards
drums
flute
harmonica
guitar pro
video
Ultimate-Tabs

Language Lessons (five Words Or Less)

    Intro 
E-------------------------------------------------------| 
B-------------------------------------------------------| 
G-------------------------------------------------------| 
D-2-2-2-2-2-------------------2-2-2-2-------------------| 
A-----------2-2-2-2-2-----------------2-2-2-2-2---------| 
E---------------------0-0-0-0-------------------0-0-0-0-| 

    Pre-Verse 
E---------------------------------| 
B-------------------------2-2-2-2-| 
G-3-3-3-3---------5-5-5-5-2-2-2-2-| 
D-3-3-3-3-6-6-6-6-5-5-5-5-2-2-2-2-| 
A-3-3-3-3-6-6-6-6-5-5-5-5---------| 
E---------6-6-6-6-----------------| 

     Verse 
E---------------------------------| 
B---------------------------------| 
G---------------------------------| 
D---------0-----0---------2-----2-| 
A-2-----2-0-0-0-0-3-----3-2-2-2-2-| 
E-2-2-2-2---------3-3-3-3---------| 

     Bridge 
E-------------------| 
B-------------------| 
G-------------------| 
D-----2-2-2-4-4-4-4-| 
A-0-0-2-2-2-4-4-4-4-| 
E-0-0-------4-4-4-4-| 

     Chorus 
E---------------------------------| 
B---------------------------------| 
G-2-2-2-2---------2-2-2-2---------| 
D-2-2-2-2-2-2-2-2-2-2-2-2-3-3-3-3-| 
A-0-0-0-0-2-2-2-2-2-2-2-2-3-3-3-3-| 
E---------0-0-0-0---------3-3-3-3-|  
less
plus
Add to Songbook Print Version How to play lesson Submit videolesson
Click the best TAGS for this song:
None of them
Contributor: knutslim Correct

If you can not find the chords or tabs you want, look at our partner E-chords. If you are a premium member, you have total access to our video lessons.

If you find a wrong Bad To Me from Hawthorne Heights, click the correct button above.

login/signup
my songbooks
my recent views
my submits