tools Ultimate Tabs

Start AutoScroll Font Size Down Font Size Up

Find us on Facebook

chords
tabs
bass
ukulele
keyboards
drums
flute
harmonica
guitar pro
video
Ultimate-Tabs

Rescue Me

     Intro 
E-5-5-5-5-------------------5-5-5-5-5-| 
B-0-0-0-0-5-5-5-------5-5-5-0-0-0-0-0-| 
G---------0-0-0-5-5-5-0-0-0-----------| Guitar 1 
D---------------0-0-0-----------------| 
A-------------------------------------| 
E-------------------------------------| 

E------------------------------------| 
B------------------------------------| 
G-----------6~-----------5~---------6| Guitar 2 
D-4-4-4-4-3----3-3-3-3-2----------4--| 
A---------------------------5-5-5----| 
E------------------------------------| 

     Pre-Verse 
E------------------|-------------------| 
B------------------|-------------------| 
G------------------|-------------------| Guitar 1 & 2 
D-6--------6-------|-6--------6--------| 
A-4-9--7-9-4-9--7-9|-4-9--7-9-4-9--7-9-| 
E---7--5-7---7--5-7|---7--5-7---7--5-7-| 

    Verse 
E-------------------------------------------------| 
B-------------------------------------------------| 
G-x-x-x-x-x-x-------------------------------------| Guitar 1 & 2 
D-------------x-x-x-x-x-x-x-----------------------| 
A---------------------------x-x-x-x-x-x-----------| 
E---------------------------------------x-x-x-x-x-| 

    Chorus 
E-------------------------------| 
B---------------2-2-2-2---------| 
G---------------2-2-2-2---------| 
D-6-6-6---------2-2-2-2---------| Guiatr 1 & 2 
A-4-4-4-9-9-9-9---------3-3-3-3-| 
E-------7-7-7-7---------3-3-3-3-| 

     Solo 
E----------------------------------------15-------| 
B-15------------15--------------------15----13----| 
G----18--15-18-----18--15-18----13-------------13-| 
D----------------------------12----14-------------| 
A-------------------------------------------------| 
E-------------------------------------------------|  
less
plus
Add to Songbook Print Version How to play lesson Submit videolesson
Click the best TAGS for this song:
None of them
Contributor: Chlojurg Correct

If you can not find the chords or tabs you want, look at our partner E-chords. If you are a premium member, you have total access to our video lessons.

If you find a wrong Bad To Me from Hawthorne Heights, click the correct button above.

login/signup
my songbooks
my recent views
my submits