S Hawthorne Heights

This Is Who We Are bass

Hawthorne Heights

tools Ultimate Tabs

Start AutoScroll Font Size Down Font Size Up

Find us on Facebook

chords tabs
bass
ukulele keyboards
drums
flute
harmonica
guitar pro
video
Ultimate-Tabs

This Is Who We Are

Artist: Hawthorne Heights
Song: This Is WHo We Are
Album: If Only You Were Lonely
Standard Tuning (E,A,D,G)
Bassist: Matt Ridenour

Real fun song to play, noone has tabbed it and i've seen Matt play it like 100 times.  
of this tab is by ear so bear with me, eamil any corrections to [email protected]  
yo!
This Is My First Tab

Intro: x 2
G----------------------------------------------------------------|
D----------------------------------------------------------------|
A--------------------------333333333333--555555555555---333------|
E-00---00---0000---00---00------------------------------------0--|

Pre Verse fill
G------|
D------|
A------|
E-00---|

Verse x 2
G----------------------------------------------------------------|
D--------------------------------11------------------------------|
A-777777777777777577777--9999-11-----3333333333333-555555555555--|
E----------------------------------------------------------------|

Pre-Chorous
G------------------|
D------------------|
A------3~----3333--|
E-0~---------------|

Chorous (on the open E listen for the beat it kinda follows the drums) x 2
G--------------------------------------------------------------|
D--------------------------------------------------------------|
A----------------------33333333333333333--5555555555555--3333--|
E-0---00--0000--00--00-----------------------------------------|

Pre Verse fill
Verse x 2
Pre-Chorous
Chorous x 2

Breakdown x 4
G---------------------------------------------------------|
D---------------------------------------------------------|
A----------------------------33333--3333--33333--0000--5--|
E-00000--0000----00000--0000------------------------------|

Re-Intro
G-------------------------------------------------|
D-------------------------------------------------|
A----------------------33--33--3335--55---3333----|
E-00--00--0000--00--00-------------------------0--|

Chorous x 2

End
G---------------------|
D---------------------|
A----3/5----5/9\0~----|
E-00-----00-----------|

Thats Pretty Much It, Um Enjoy it, and if anyone has anything to add to it, feel free, 
this isnt 100% right, i know it
less
plus
Add to Songbook Print Version How to play lesson Submit videolesson
Click the best TAGS for this song:
None of them
Contributor: franmari Correct

If you can not find the chords or tabs you want, look at our partner E-chords. If you are a premium member, you have total access to our video lessons.

If you find a wrong Bad To Me from Hawthorne Heights, click the correct button above.

login/signup
my songbooks
my recent views
my submits