S Hawthorne Heights

This Is Who We Are tab

Hawthorne Heights

tools Ultimate Tabs

Start AutoScroll Font Size Down Font Size Up

Find us on Facebook

chords
tabs
bass ukulele keyboards
drums
flute
harmonica
guitar pro
video
Ultimate-Tabs

This Is Who We Are

-----------------------------------------------------------------------
	         This is Who We Are  Hawthorne Heights
-----------------------------------------------------------------------
This is my first tab and Im only 11 years old. Nobody has tabbed this
song, so I guess Ill give it a try. I only got guitar 2 and figure out
strumming yourself, its not that hard. I cant figure out verse 1, but
hopefully Ill have it soon.

Tuning: standard

     Intro pt 1

e|--------------------------------------------------------------------|
B|-------------7-7/--8---all this ------------10-10/--11-----all-this-|
G|-------------x-x---x-----twice--------------x---x---x-------twice---|
D|--22---------4-4/--5--------------22--------7---7/--8---------------|
A|--22------------------------------22--------------------------------|
E|--00------------------------------00--------------------------------|
    ..                              ..                 . = palm mute     
       Intro pt 2                    


e|--------------------------------------------------------------------|
B|--------------------------------------------------------------------|
G|-----5-----------------------------7------second-time-end-on--------|
D|-----5-----------------------------7--------this-chord----2~--------|
A|-----3-----------------------------5----------------------2~--------|
E|----------------------------------------------------------0~--------|
                            Do intro pt 1 and 2 twice before verse
    Pre chorus

e|--------------------------------------------------------------------|
B|--------------------------------------------------------------------|
G|--------------------------------------------------------------------|
D|--------2~---------------------------5~-----------------------------|
A|--------0~---------------------------3~-----------------------------|
E|--------------------------------------------------------------------|


    Chorus
e|--------------------------------------------------------------------|
B|------------------------------------------end-on--------------------|
G|------------5--------7----play-this---------this--------------------|
D|---2--------5--------7------twice-----------------2~----------------|
A|---2--------3--------5----------------------------2~----------------|
E|---0----------------------------------------------0~----------------|

    Verse 2

     Do verse 2x

e|--------------------------------------------------------------------|
B|--------------------------------------------------------------------|
G|----------------------------------5-about------7-about--------------|
D|--2--2-----------2--2-------------5x13--------7-x13----------------|
A|--2--2-about-x13-2--2-about-x13---3------------5--------------------|
E|--0--0-----------0--0-----------------------------------------------|
       .              . 

Pre chorus


e|--------------------------------------------------------------------|
B|--------------------------------------------------------------------|
G|--------------------------------------------------------------------|
D|--------2~---------------------------5~-----------------------------|
A|--------0~---------------------------3~-----------------------------|
E|--------------------------------------------------------------------|

Chorus
e|--------------------------------------------------------------------|
B|------------------------------------------end-on--------------------|
G|------------5--------7----play-this---------this--------------------|
D|---2--------5--------7------twice-----------------2~----------------|
A|---2--------3--------5----------------------------2~----------------|
E|---0----------------------------------------------0~----------------|

    Bridge
    Play bridge 2x then play 2 more times without palm mute

e|--------------------------------------------------------------------|
B|--------------------------------------------------------------------|
G|---------------------5-about--5--------2--------7-about-------------|
D|--2-------2----------58x-----5-about--2-about--73x----------------|
A|--2-about-2-about----3--------3---5x---04x-----5-------------------|
E|--08x----08x------------------------------------------------------|
    .       .     

Do intro pt 1 twice then chorus

	Outro

e|--------------------------------------------------------------------|
B|------------7-7/-8------------1012---------------------------------|
G|------------x-x--x------------x---x---------------------------------|
D|--2-2-------4-4/-5---2-2------7---9---------------------------------|
A|--2-2----------------2-2--------------------------------------------|
E|--0-0----------------0-0--------------------------------------------|
    . .                . .


less
plus
Add to Songbook Print Version How to play lesson Submit videolesson
Click the best TAGS for this song:
None of them
Contributor: MECOShak Correct

If you can not find the chords or tabs you want, look at our partner E-chords. If you are a premium member, you have total access to our video lessons.

If you find a wrong Bad To Me from Hawthorne Heights, click the correct button above.

login/signup
my songbooks
my recent views
my submits