Hillsong

What the world will never take tab

Hillsong

tools Ultimate Tabs

Start AutoScroll Font Size Down Font Size Up

Find us on Facebook

chords
tabs
bass
ukulele
keyboards
drums
flute
harmonica
guitar pro
video
Ultimate-Tabs

What the world will never take

Intro  
    A                                             D 
e|--------------------------------------------------------------------- 
b|--------------------------------------------------------------------- 
g|--------------------------------------------------------------------- 
d|--------7--7--6--6--6h7--------7--7--6--6--6h7--------7--7--6--6--6h7 
a|------------------------------------------------5--5----------------- 
e|--5--5-------------------5--5---------------------------------------- 
 
e|----------------------- 
b|----------------------- 
g|----------------------- 
d|--------7--7--6--6--6h7 
a|--5--5-----------------     x2 
e|----------------------- 
Verse 
    A                                             D 
e|--------------------------------------------------------------------- 
b|--------------------------------------------------------------------- 
g|--------------------------------------------------------------------- 
d|--------7--7--6--6--6h7--------7--7--6--6--6h7--------7--7--6--6--6h7 
a|------------------------------------------------5--5----------------- 
e|--5--5-------------------5--5---------------------------------------- 
 
e|----------------------- 
b|----------------------- 
g|----------------------- 
d|--------7--7--6--6--6h7 
a|--5--5-----------------     x2 
e|----------------------- 
 
Pre-Chorus 
    A                    F#m     Bm        D                    A        Bm 
g|6-6-4--6--6--4--6--6--4--6/7--6--4--6--6--6--4--6--6--4--6--6--4--6--6/7-6-4 
 
 
Chorus 
A D F#m Bm D A F#m Bm D 
 
Verse (but this time only play the riff once) 
 
Chorus 
 
After Chorus this time play an A for a few beats then go onto the instrumental 
 
Instrumental 
e|---------------------------------------------------------------------------- 
b|----------10----------10------10----------10--12b13b12--10------------------ 
g|--11--11------11--11------11------10--10--------------------------6--------6 
d|------------------------------------------------------------7--7-----7--7--- 
a|---------------------------------------------------------------------------- 
e|---------------------------------------------------------------------------- 
 
e|---------------------------------------------------------------------------- 
b|---------------------------------------10----------10------10--10--12b13b12- 
g|-------------8--------8-----8--11--11------11--11------11------10--10------- 
d|--7--7/9--9-----9--9-----9-------------------------------------------------- 
a|---------------------------------------------------------------------------- 
e|---------------------------------------------------------------------------- 
 
e|---------------------------------------------------------------------------- 
b|--10------------------------------------------------------------------------ 
g|------------6--------6-------------8--------8-----8------------------------- 
d|------7--7-----7--7-----7--7/9--9-----9--9-----9---------------------------- 
a|---------------------------------------------------------------------------- 
e|---------------------------------------------------------------------------- 
 
Chorus x2 
 
End on A 
 
god bless 
 
 
credit goes to: 
marty sampson  
and the other dude who tabbed this 
 
less
plus
Add to Songbook Print Version How to play lesson Submit videolesson
Click the best TAGS for this song:
None of them
Contributor: Ronnburn Correct

If you can not find the chords or tabs you want, look at our partner E-chords. If you are a premium member, you have total access to our video lessons.

If you find a wrong Bad To Me from Hillsong, click the correct button above.

login/signup
my songbooks
my recent views
my submits