tools Ultimate Tabs

Start AutoScroll Font Size Down Font Size Up

Find us on Facebook

chords
tabs
bass ukulele keyboards
drums
flute
harmonica
guitar pro video
Ultimate-Tabs

Believe


Guitar 1 

                                       
E||--------------------------|--------------------------| 
B||--------------------------|--------------------------| 
G||--4-----4-----4-----4-----|--5-----5-----5-----5-----| 
D||--------------------------|--------------------------| 
A||--------------------------|-----3-----3-----3-----3--| 
D||-----2-----2-----2-----2--|--------------------------| 


                                    
--------------------------|--------------------------| 
--------------------------|--------------------------| 
--4-----4-----4-----4-----|--2-----2-----2-----2-----| 
-----5-----5-----5-----5--|-----4-----4-----4-----4--| 
--------------------------|--------------------------| 
--------------------------|--------------------------| 


                                    
--------------------------|--------------------------| 
--------------------------|--------------------------| 
--4-----4-----4-----4-----|--5-----5-----5-----5-----| 
--------------------------|--------------------------| 
--------------------------|-----3-----3-----3-----3--| 
-----2-----2-----2-----2--|--------------------------| 


                                    
--------------------------|--------------------------| 
--------------------------|--------------------------| 
--4-----4-----4-----4-----|--2-----2-----2-----2-----| 
-----5-----5-----5-----5--|-----4-----4-----4-----4--| 
--------------------------|--------------------------| 
--------------------------|--------------------------| 


                                     
-----------------------------|-----------------------------| 
-----------------------------|-----------------------------| 
-----------------------------|--5--5-5-5--5-5--5-5--5--5-5-| 
--2--2-2-2--2-2--2-2--2--2-2-|--5--5-5-5--5-5--5-5--5--5-5-| 
--2--2-2-2--2-2--2-2--2--2-2-|--3--3-3-3--3-3--3-3--3--3-3-| 
--2--2-2-2--2-2--2-2--2--2-2-|-----------------------------| 


                                    
-----------------------------|----------------------------| 
-----------------------------|----------------------------| 
-----------------------------|----------------------------| 
--5--5-5-5--5-5--5-5--5--5-5-|--7--7-7-7--7-7--7-7--7--0--| 
--5--5-5-5--5-5--5-5--5--5-5-|--5--5-5-5--5-5--5-5--5--0--| 
--5--5-5-5--5-5--5-5--5--5-5-|--4--4-4-4--4-4--4-4--4--0--| 


                                     
-----------------------------|-----------------------------| 
-----------------------------|-----------------------------| 
-----------------------------|--5--5-5-5--5-5--5-5--5--5-5-| 
--2--2-2-2--2-2--2-2--2--2-2-|--5--5-5-5--5-5--5-5--5--5-5-| 
--2--2-2-2--2-2--2-2--2--2-2-|--3--3-3-3--3-3--3-3--3--3-3-| 
--2--2-2-2--2-2--2-2--2--2-2-|-----------------------------| 


                                    
-----------------------------|----------------------------| 
-----------------------------|----------------------------| 
-----------------------------|----------------------------| 
--5--5-5-5--5-5--5-5--5--5-5-|--7--7-7-7--7-7--7-7--7--0--| 
--5--5-5-5--5-5--5-5--5--5-5-|--5--5-5-5--5-5--5-5--5--0--| 
--5--5-5-5--5-5--5-5--5--5-5-|--4--4-4-4--4-4--4-4--4--0--| 


                                    
--------------------------|--------------------------| 
--------------------------|--------------------------| 
--4-----4-----4-----4-----|--5-----5-----5-----5-----| 
--------------------------|--------------------------| 
--------------------------|-----3-----3-----3-----3--| 
-----2-----2-----2-----2--|--------------------------| 


                                    
--------------------------|--------------------------| 
--------------------------|--------------------------| 
--4-----4-----4-----4-----|--2-----2-----2-----2-----| 
-----5-----5-----5-----5--|-----4-----4-----4-----4--| 
--------------------------|--------------------------| 
--------------------------|--------------------------| 


                                    
--------------------------|--------------------------| 
--------------------------|--------------------------| 
--4-----4-----4-----4-----|--5-----5-----5-----5-----| 
--------------------------|--------------------------| 
--------------------------|-----3-----3-----3-----3--| 
-----2-----2-----2-----2--|--------------------------| 


                                    
--------------------------|--------------------------| 
--------------------------|--------------------------| 
--4-----4-----4-----4-----|--2-----2-----2-----2-----| 
-----5-----5-----5-----5--|-----4-----4-----4-----4--| 
--------------------------|--------------------------| 
--------------------------|--------------------------| 


                                    
--------------------------|--------------------------| 
--------------------------|--------------------------| 
--4-----4-----4-----4-----|--5-----5-----5-----5-----| 
--------------------------|--------------------------| 
--------------------------|-----3-----3-----3-----3--| 
-----2-----2-----2-----2--|--------------------------| 


                                    
--------------------------|--------------------------| 
--------------------------|--------------------------| 
--4-----4-----4-----4-----|--2-----2-----2-----2-----| 
-----5-----5-----5-----5--|-----4-----4-----4-----4--| 
--------------------------|--------------------------| 
--------------------------|--------------------------| 


                                    
--------------------------|--------------------------| 
--------------------------|--------------------------| 
--4-----4-----4-----4-----|--5-----5-----5-----5-----| 
--------------------------|--------------------------| 
--------------------------|-----3-----3-----3-----3--| 
-----2-----2-----2-----2--|--------------------------| 


                              
--------------------------|-----------------------| 
--------------------------|-----------------------| 
--4-----4-----4-----4-----|--2-----2--------------| 
-----5-----5-----5-----5--|-----4-----4-----------| 
--------------------------|-----------------------| 
--------------------------|-----------------------| 


                                     
-----------------------------|-----------------------------| 
-----------------------------|-----------------------------| 
-----------------------------|--5--5-5-5--5-5--5-5--5--5-5-| 
--2--2-2-2--2-2--2-2--2--2-2-|--5--5-5-5--5-5--5-5--5--5-5-| 
--2--2-2-2--2-2--2-2--2--2-2-|--3--3-3-3--3-3--3-3--3--3-3-| 
--2--2-2-2--2-2--2-2--2--2-2-|-----------------------------| 


                                    
-----------------------------|----------------------------| 
-----------------------------|----------------------------| 
-----------------------------|----------------------------| 
--5--5-5-5--5-5--5-5--5--5-5-|--7--7-7-7--7-7--7-7--7--0--| 
--5--5-5-5--5-5--5-5--5--5-5-|--5--5-5-5--5-5--5-5--5--0--| 
--5--5-5-5--5-5--5-5--5--5-5-|--4--4-4-4--4-4--4-4--4--0--| 


                                     
-----------------------------|-----------------------------| 
-----------------------------|-----------------------------| 
-----------------------------|--5--5-5-5--5-5--5-5--5--5-5-| 
--2--2-2-2--2-2--2-2--2--2-2-|--5--5-5-5--5-5--5-5--5--5-5-| 
--2--2-2-2--2-2--2-2--2--2-2-|--3--3-3-3--3-3--3-3--3--3-3-| 
--2--2-2-2--2-2--2-2--2--2-2-|-----------------------------| 


                                         
-----------------------------|----------------------------|-------------------| 
-----------------------------|----------------------------|-------------------| 
-----------------------------|----------------------------|-------------------| 
--5--5-5-5--5-5--5-5--5--5-5-|--7--7-7-7--7-7--7-7--7--0--|--2----------------| 
--5--5-5-5--5-5--5-5--5--5-5-|--5--5-5-5--5-5--5-5--5--0--|--2----------------| 
--5--5-5-5--5-5--5-5--5--5-5-|--4--4-4-4--4-4--4-4--4--0--|--2----------------| 


-------------------|-------------------|-------------------|-------------------| 
-------------------|-------------------|-------------------|-------------------| 
-------------------|-------------------|-------------------|-------------------| 
-------------------|-------------------|-------------------|-------------------| 
-------------------|-------------------|-------------------|-------------------| 
-------------------|-------------------|-------------------|-------------------| 


-------------------|-------------------|-------------------| 
-------------------|-------------------|-------------------| 
-------------------|-------------------|-------------------| 
-------------------|-------------------|-------------------| 
-------------------|-------------------|-------------------| 
-------------------|-------------------|-------------------| 


                                    
--------------------------|--------------------------| 
--------------------------|--------------------------| 
--4-----4-----4-----4-----|--5-----5-----5-----5-----| 
--------------------------|--------------------------| 
--------------------------|-----3-----3-----3-----3--| 
-----2-----2-----2-----2--|--------------------------| 


                                    
--------------------------|--------------------------| 
--------------------------|--------------------------| 
--4-----4-----4-----4-----|--2-----2-----2-----2-----| 
-----5-----5-----5-----5--|-----4-----4-----4-----4--| 
--------------------------|--------------------------| 
--------------------------|--------------------------| 


                                    
--------------------------|--------------------------| 
--------------------------|--------------------------| 
--4-----4-----4-----4-----|--5-----5-----5-----5-----| 
--------------------------|--------------------------| 
--------------------------|-----3-----3-----3-----3--| 
-----2-----2-----2-----2--|--------------------------| 


                                    
--------------------------|--------------------------| 
--------------------------|--------------------------| 
--4-----4-----4-----4-----|--2-----2-----2-----2-----| 
-----5-----5-----5-----5--|-----4-----4-----4-----4--| 
--------------------------|--------------------------| 
--------------------------|--------------------------| 


                                    
--------------------------|--------------------------| 
--------------------------|--------------------------| 
--------------------------|--5--5--5--5--5--5--5--5--| 
--2--2--2--2--2--2--2--2--|--5--5--5--5--5--5--5--5--| 
--2--2--2--2--2--2--2--2--|--3--3--3--3--3--3--3--3--| 
--2--2--2--2--2--2--2--2--|--------------------------| 


                                    
--------------------------|--------------------------| 
--------------------------|--------------------------| 
--------------------------|--------------------------| 
--5--5--5--5--5--5--5--5--|--7--7--7--7--7--7--7--0--| 
--5--5--5--5--5--5--5--5--|--5--5--5--5--5--5--5--0--| 
--5--5--5--5--5--5--5--5--|--4--4--4--4--4--4--4--0--| 


                                    
--------------------------|--------------------------| 
--------------------------|--------------------------| 
--------------------------|--5--5--5--5--5--5--5--5--| 
--2--2--2--2--2--2--2--2--|--5--5--5--5--5--5--5--5--| 
--2--2--2--2--2--2--2--2--|--3--3--3--3--3--3--3--3--| 
--2--2--2--2--2--2--2--2--|--------------------------| 


                                         
--------------------------|--------------------------|-------------------|-----| 
--------------------------|--------------------------|-------------------|-----| 
--------------------------|--------------------------|-------------------|-----| 
--5--5--5--5--5--5--5--5--|--7--7--7--7--7--7--7--0--|--2----------------|-----| 
--5--5--5--5--5--5--5--5--|--5--5--5--5--5--5--5--0--|--2----------------|-----| 
--5--5--5--5--5--5--5--5--|--4--4--4--4--4--4--4--0--|--2----------------|-----| 


                                                
-----|-----|--------------------------|--------------------------| 
-----|-----|--------------------------|--------------------------| 
-----|-----|--4-----4-----4-----4-----|--5-----5-----5-----5-----| 
-----|-----|--------------------------|--------------------------| 
-----|-----|--------------------------|-----3-----3-----3-----3--| 
-----|-----|-----2-----2-----2-----2--|--------------------------| 


                                    
--------------------------|--------------------------| 
--------------------------|--------------------------| 
--4-----4-----4-----4-----|--2-----2-----2-----2-----| 
-----5-----5-----5-----5--|-----4-----4-----4-----4--| 
--------------------------|--------------------------| 
--------------------------|--------------------------| 


                                    
--------------------------|--------------------------| 
--------------------------|--------------------------| 
--4-----4-----4-----4-----|--5-----5-----5-----5-----| 
--------------------------|--------------------------| 
--------------------------|-----3-----3-----3-----3--| 
-----2-----2-----2-----2--|--------------------------| 


                                    
--------------------------|--------------------------| 
--------------------------|--------------------------| 
--4-----4-----4-----4-----|--2-----2-----2-----2-----| 
-----5-----5-----5-----5--|-----4-----4-----4-----4--| 
--------------------------|--------------------------| 
--------------------------|--------------------------| 


                                    
--------------------------|--------------------------| 
--------------------------|--------------------------| 
--4-----4-----4-----4-----|--5-----5-----5-----5-----| 
--------------------------|--------------------------| 
--------------------------|-----3-----3-----3-----3--| 
-----2-----2-----2-----2--|--------------------------| 


                                                        
--------------------------|----------------------|-----------------------------| 
--------------------------|----------------------|-----------------------------| 
--4-----4-----4-----4-----|--2-------------------|-----------------------------| 
-----5-----5-----5-----5--|----------------------|--2--2-2-2--2-2--2-2--2--2-2-| 
--------------------------|----------------------|--2--2-2-2--2-2--2-2--2--2-2-| 
--------------------------|----------------------|--2--2-2-2--2-2--2-2--2--2-2-| 


                                     
-----------------------------|-----------------------------| 
-----------------------------|-----------------------------| 
--5--5-5-5--5-5--5-5--5--5-5-|-----------------------------| 
--5--5-5-5--5-5--5-5--5--5-5-|--5--5-5-5--5-5--5-5--5--5-5-| 
--3--3-3-3--3-3--3-3--3--3-3-|--5--5-5-5--5-5--5-5--5--5-5-| 
-----------------------------|--5--5-5-5--5-5--5-5--5--5-5-| 


                                     
----------------------------|-----------------------------| 
----------------------------|-----------------------------| 
----------------------------|-----------------------------| 
--7--7-7-7--7-7--7-7--7--0--|--2--2-2-2--2-2--2-2--2--2-2-| 
--5--5-5-5--5-5--5-5--5--0--|--2--2-2-2--2-2--2-2--2--2-2-| 
--4--4-4-4--4-4--4-4--4--0--|--2--2-2-2--2-2--2-2--2--2-2-| 


                                     
-----------------------------|-----------------------------| 
-----------------------------|-----------------------------| 
--5--5-5-5--5-5--5-5--5--5-5-|-----------------------------| 
--5--5-5-5--5-5--5-5--5--5-5-|--5--5-5-5--5-5--5-5--5--5-5-| 
--3--3-3-3--3-3--3-3--3--3-3-|--5--5-5-5--5-5--5-5--5--5-5-| 
-----------------------------|--5--5-5-5--5-5--5-5--5--5-5-| 


                                         
----------------------------|-------------------|-------------------|| 
----------------------------|-------------------|-------------------|| 
----------------------------|-------------------|-------------------|| 
--7--7-7-7--7-7--7-7--7--0--|--2----------------|--L----------------|| 
--5--5-5-5--5-5--5-5--5--0--|--2----------------|--L----------------|| 
--4--4-4-4--4-4--4-4--4--0--|--2----------------|--L----------------|| 


Guitar 2 

tarts at (00:22) 


                                        
------------------------------|---------------------------------| 
--5--5-5-5--5-5--5-5--5-7-7-7-|--8--8-8-8--8-8--8-8--8-10-10-10-| 
--x--x-x-x--x-x--x-x--x-x-x-x-|--x--x-x-x--x-x--x-x--x--x--x--x-| 
--2--2-2-2--2-2--2-2--2-4-4-4-|--5--5-5-5--5-5--5-5--5--7--7--7-| 
------------------------------|---------------------------------| 
------------------------------|---------------------------------| 


                                                        
------------------------------------------|------------------------------------| 
--12--12-12-12--12-12--12-12--12-13-13-13-|--10--10-10-10--10-10--10-10--8--8--| 
---x---x--x--x---x--x---x--x---x--x--x--x-|---x---x--x--x---x--x---x--x--x--x--| 
---9---9--9--9---9--9---9--9---9-10-10-10-|---7---7--7--7---7--7---7--7--5--5--| 
------------------------------------------|------------------------------------| 
------------------------------------------|------------------------------------| 


                                        
------------------------------|---------------------------------| 
--5--5-5-5--5-5--5-5--5-7-7-7-|--8--8-8-8--8-8--8-8--8-10-10-10-| 
--x--x-x-x--x-x--x-x--x-x-x-x-|--x--x-x-x--x-x--x-x--x--x--x--x-| 
--2--2-2-2--2-2--2-2--2-4-4-4-|--5--5-5-5--5-5--5-5--5--7--7--7-| 
------------------------------|---------------------------------| 
------------------------------|---------------------------------| 


                                                        
------------------------------------------|------------------------------------| 
--12--12-12-12--12-12--12-12--12-13-13-13-|--10--10-10-10--10-10--10-10--8--8--| 
---x---x--x--x---x--x---x--x---x--x--x--x-|---x---x--x--x---x--x---x--x--x--x--| 
---9---9--9--9---9--9---9--9---9-10-10-10-|---7---7--7--7---7--7---7--7--5--5--| 
------------------------------------------|------------------------------------| 
------------------------------------------|------------------------------------| 


   
-------------------|-------------------|-------------------|-------------------| 
--5----------------|-------------------|-------------------|-------------------| 
--x----------------|-------------------|-------------------|-------------------| 
--2----------------|-------------------|-------------------|-------------------| 
-------------------|-------------------|-------------------|-------------------| 
-------------------|-------------------|-------------------|-------------------| 


                       
                                      
--------------------------|--------------------10--10--| 
--5--5--5--5--5--5--7--7--|--8--8--8--8--8--8---x---x--| 
--x--x--x--x--x--x--x--x--|--x--x--x--x--x--x---7---7--| 
--2--2--2--2--2--2--4--4--|--5--5--5--5--5--5----------| 
--------------------------|----------------------------| 
--------------------------|----------------------------| 


                                   
                                                  
--------------------------10--10--|--------------------------------| 
--12--12--12--12--12--12---x---x--|--10--10--10--10--10--10--8--8--| 
---x---x---x---x---x---x---7---7--|---x---x---x---x---x---x--x--x--| 
---9---9---9---9---9---9----------|---7---7---7---7---7---7--5--5--| 
----------------------------------|--------------------------------| 
----------------------------------|--------------------------------| 


                       
                                      
--------------------------|--------------------10--10--| 
--5--5--5--5--5--5--7--7--|--8--8--8--8--8--8---x---x--| 
--x--x--x--x--x--x--x--x--|--x--x--x--x--x--x---7---7--| 
--2--2--2--2--2--2--4--4--|--5--5--5--5--5--5----------| 
--------------------------|----------------------------| 
--------------------------|----------------------------| 


                                   
                                                  
--------------------------10--10--|--------------------------------| 
--12--12--12--12--12--12---x---x--|--10--10--10--10--10--10--8--8--| 
---x---x---x---x---x---x---7---7--|---x---x---x---x---x---x--x--x--| 
---9---9---9---9---9---9----------|---7---7---7---7---7---7--5--5--| 
----------------------------------|--------------------------------| 
----------------------------------|--------------------------------| 


                       
                                      
--------------------------|--------------------10--10--| 
--5--5--5--5--5--5--7--7--|--8--8--8--8--8--8---x---x--| 
--x--x--x--x--x--x--x--x--|--x--x--x--x--x--x---7---7--| 
--2--2--2--2--2--2--4--4--|--5--5--5--5--5--5----------| 
--------------------------|----------------------------| 
--------------------------|----------------------------| 


                             
                                          
--------------------------10--10--|---------------------------| 
--12--12--12--12--12--12---x---x--|--10--10--10--10-----------| 
---x---x---x---x---x---x---7---7--|---x---x---x---x-----------| 
---9---9---9---9---9---9----------|---7---7---7---7-----------| 
----------------------------------|---------------------------| 
----------------------------------|---------------------------| 


                                        
------------------------------|---------------------------------| 
--5--5-5-5--5-5--5-5--5-7-7-7-|--8--8-8-8--8-8--8-8--8-10-10-10-| 
--x--x-x-x--x-x--x-x--x-x-x-x-|--x--x-x-x--x-x--x-x--x--x--x--x-| 
--2--2-2-2--2-2--2-2--2-4-4-4-|--5--5-5-5--5-5--5-5--5--7--7--7-| 
------------------------------|---------------------------------| 
------------------------------|---------------------------------| 


                                                        
------------------------------------------|------------------------------------| 
--12--12-12-12--12-12--12-12--12-13-13-13-|--10--10-10-10--10-10--10-10--8--8--| 
---x---x--x--x---x--x---x--x---x--x--x--x-|---x---x--x--x---x--x---x--x--x--x--| 
---9---9--9--9---9--9---9--9---9-10-10-10-|---7---7--7--7---7--7---7--7--5--5--| 
------------------------------------------|------------------------------------| 
------------------------------------------|------------------------------------| 


                                        
------------------------------|---------------------------------| 
--5--5-5-5--5-5--5-5--5-7-7-7-|--8--8-8-8--8-8--8-8--8-10-10-10-| 
--x--x-x-x--x-x--x-x--x-x-x-x-|--x--x-x-x--x-x--x-x--x--x--x--x-| 
--2--2-2-2--2-2--2-2--2-4-4-4-|--5--5-5-5--5-5--5-5--5--7--7--7-| 
------------------------------|---------------------------------| 
------------------------------|---------------------------------| 


                                                        
------------------------------------------|------------------------------------| 
--12--12-12-12--12-12--12-12--12-13-13-13-|--10--10-10-10--10-10--10-10--8--8--| 
---x---x--x--x---x--x---x--x---x--x--x--x-|---x---x--x--x---x--x---x--x--x--x--| 
---9---9--9--9---9--9---9--9---9-10-10-10-|---7---7--7--7---7--7---7--7--5--5--| 
------------------------------------------|------------------------------------| 
------------------------------------------|------------------------------------| 


                       
                                      
--------------------------|--------------------10--10--| 
--5--5--5--5--5--5--7--7--|--8--8--8--8--8--8---x---x--| 
--x--x--x--x--x--x--x--x--|--x--x--x--x--x--x---7---7--| 
--2--2--2--2--2--2--4--4--|--5--5--5--5--5--5----------| 
--------------------------|----------------------------| 
--------------------------|----------------------------| 


                                   
                                                  
--------------------------10--10--|--------------------------------| 
--12--12--12--12--12--12---x---x--|--10--10--10--10--10--10--8--8--| 
---x---x---x---x---x---x---7---7--|---x---x---x---x---x---x--x--x--| 
---9---9---9---9---9---9----------|---7---7---7---7---7---7--5--5--| 
----------------------------------|--------------------------------| 
----------------------------------|--------------------------------| 


                       
                                      
--------------------------|--------------------10--10--| 
--5--5--5--5--5--5--7--7--|--8--8--8--8--8--8---x---x--| 
--x--x--x--x--x--x--x--x--|--x--x--x--x--x--x---7---7--| 
--2--2--2--2--2--2--4--4--|--5--5--5--5--5--5----------| 
--------------------------|----------------------------| 
--------------------------|----------------------------| 


                                   
                                                  
--------------------------10--10--|--------------------------------|-----|-----| 
--12--12--12--12--12--12---x---x--|--10--10--10--10--10--10--8--8--|-----|-----| 
---x---x---x---x---x---x---7---7--|---x---x---x---x---x---x--x--x--|-----|-----| 
---9---9---9---9---9---9----------|---7---7---7---7---7---7--5--5--|-----|-----| 
----------------------------------|--------------------------------|-----|-----| 
----------------------------------|--------------------------------|-----|-----| 


                                              
                                                     
-----|-----|-----|-----|-----|-----|--------------------------| 
-----|-----|-----|-----|-----|-----|--5--5--5--5--5--5--7--7--| 
-----|-----|-----|-----|-----|-----|--x--x--x--x--x--x--x--x--| 
-----|-----|-----|-----|-----|-----|--2--2--2--2--2--2--4--4--| 
-----|-----|-----|-----|-----|-----|--------------------------| 
-----|-----|-----|-----|-----|-----|--------------------------| 


                               
                                              
--------------------10--10--|--------------------------10--10--| 
--8--8--8--8--8--8---x---x--|--12--12--12--12--12--12---x---x--| 
--x--x--x--x--x--x---7---7--|---x---x---x---x---x---x---7---7--| 
--5--5--5--5--5--5----------|---9---9---9---9---9---9----------| 
----------------------------|----------------------------------| 
----------------------------|----------------------------------| 


                           
                                          
--------------------------------|--------------------------| 
--10--10--10--10--10--10--8--8--|--5--5--5--5--5--5--7--7--| 
---x---x---x---x---x---x--x--x--|--x--x--x--x--x--x--x--x--| 
---7---7---7---7---7---7--5--5--|--2--2--2--2--2--2--4--4--| 
--------------------------------|--------------------------| 
--------------------------------|--------------------------| 


                               
                                              
--------------------10--10--|--------------------------10--10--| 
--8--8--8--8--8--8---x---x--|--12--12--12--12--12--12---x---x--| 
--x--x--x--x--x--x---7---7--|---x---x---x---x---x---x---7---7--| 
--5--5--5--5--5--5----------|---9---9---9---9---9---9----------| 
----------------------------|----------------------------------| 
----------------------------|----------------------------------| 


                           
                                          
--------------------------------|--------------------------| 
--10--10--10--10--10--10--8--8--|--5--5--5--5--5--5--7--7--| 
---x---x---x---x---x---x--x--x--|--x--x--x--x--x--x--x--x--| 
---7---7---7---7---7---7--5--5--|--2--2--2--2--2--2--4--4--| 
--------------------------------|--------------------------| 
--------------------------------|--------------------------| 


                               
                                              
--------------------10--10--|--------------------------10--10--| 
--8--8--8--8--8--8---x---x--|--12--12--12--12--12--12---x---x--| 
--x--x--x--x--x--x---7---7--|---x---x---x---x---x---x---7---7--| 
--5--5--5--5--5--5----------|---9---9---9---9---9---9----------| 
----------------------------|----------------------------------| 
----------------------------|----------------------------------| 


                           
                                          
--------------------------------|--------------------------| 
--10--10--10--10--10--10--8--8--|--5--5--5--5--5--5--7--7--| 
---x---x---x---x---x---x--x--x--|--x--x--x--x--x--x--x--x--| 
---7---7---7---7---7---7--5--5--|--2--2--2--2--2--2--4--4--| 
--------------------------------|--------------------------| 
--------------------------------|--------------------------| 


                               
                                              
--------------------10--10--|--------------------------10--10--| 
--8--8--8--8--8--8---x---x--|--12--12--12--12--12--12---x---x--| 
--x--x--x--x--x--x---7---7--|---x---x---x---x---x---x---7---7--| 
--5--5--5--5--5--5----------|---9---9---9---9---9---9----------| 
----------------------------|----------------------------------| 
----------------------------|----------------------------------| 


                           
                                          
--------------------------------|--------------------------| 
--10--10--10--10--10--10--8--8--|--5--5--5--5--5--5--7--7--| 
---x---x---x---x---x---x--x--x--|--x--x--x--x--x--x--x--x--| 
---7---7---7---7---7---7--5--5--|--2--2--2--2--2--2--4--4--| 
--------------------------------|--------------------------| 
--------------------------------|--------------------------| 


                               
                                              
--------------------10--10--|--------------------------10--10--| 
--8--8--8--8--8--8---x---x--|--12--12--12--12--12--12---x---x--| 
--x--x--x--x--x--x---7---7--|---x---x---x---x---x---x---7---7--| 
--5--5--5--5--5--5----------|---9---9---9---9---9---9----------| 
----------------------------|----------------------------------| 
----------------------------|----------------------------------| 


                           
                                          
--------------------------------|--------------------------| 
--10--10--10--10--10--10--8--8--|--5--5--5--5--5--5--7--7--| 
---x---x---x---x---x---x--x--x--|--x--x--x--x--x--x--x--x--| 
---7---7---7---7---7---7--5--5--|--2--2--2--2--2--2--4--4--| 
--------------------------------|--------------------------| 
--------------------------------|--------------------------| 


                               
                                              
--------------------10--10--|--------------------------10--10--| 
--8--8--8--8--8--8---x---x--|--12--12--12--12--12--12---x---x--| 
--x--x--x--x--x--x---7---7--|---x---x---x---x---x---x---7---7--| 
--5--5--5--5--5--5----------|---9---9---9---9---9---9----------| 
----------------------------|----------------------------------| 
----------------------------|----------------------------------| 


                
                                           
--------------------------------|------------------------------| 
--10--10--10--10--10--10--8--8--|--5--5-5-5--5-5--5-5--5-7-7-7-| 
---x---x---x---x---x---x--x--x--|--x--x-x-x--x-x--x-x--x-x-x-x-| 
---7---7---7---7---7---7--5--5--|--2--2-2-2--2-2--2-2--2-4-4-4-| 
--------------------------------|------------------------------| 
--------------------------------|------------------------------| 


                                                    
---------------------------------|------------------------------------------| 
--8--8-8-8--8-8--8-8--8-10-10-10-|--12--12-12-12--12-12--12-12--12-13-13-13-| 
--x--x-x-x--x-x--x-x--x--x--x--x-|---x---x--x--x---x--x---x--x---x--x--x--x-| 
--5--5-5-5--5-5--5-5--5--7--7--7-|---9---9--9--9---9--9---9--9---9-10-10-10-| 
---------------------------------|------------------------------------------| 
---------------------------------|------------------------------------------| 


                                             
------------------------------------|------------------------------| 
--10--10-10-10--10-10--10-10--8--8--|--5--5-5-5--5-5--5-5--5-7-7-7-| 
---x---x--x--x---x--x---x--x--x--x--|--x--x-x-x--x-x--x-x--x-x-x-x-| 
---7---7--7--7---7--7---7--7--5--5--|--2--2-2-2--2-2--2-2--2-4-4-4-| 
------------------------------------|------------------------------| 
------------------------------------|------------------------------| 


                                                    
---------------------------------|------------------------------------------| 
--8--8-8-8--8-8--8-8--8-10-10-10-|--12--12-12-12--12-12--12-12--12-13-13-13-| 
--x--x-x-x--x-x--x-x--x--x--x--x-|---x---x--x--x---x--x---x--x---x--x--x--x-| 
--5--5-5-5--5-5--5-5--5--7--7--7-|---9---9--9--9---9--9---9--9---9-10-10-10-| 
---------------------------------|------------------------------------------| 
---------------------------------|------------------------------------------| 


                                                 
------------------------------------|-------------------|-------------------|| 
--10--10-10-10--10-10--10-10--8--8--|--5----------------|--L----------------|| 
---x---x--x--x---x--x---x--x--x--x--|--x----------------|-------------------|| 
---7---7--7--7---7--7---7--7--5--5--|--2----------------|--L----------------|| 
------------------------------------|-------------------|-------------------|| 
------------------------------------|-------------------|-------------------|| 


Guitar 3 

                                                        
E||--12----15-14-15-14-17----15-14--L-|--12----15-14-15-14-17----15-14--L-| 
B||-----------------------------------|-----------------------------------| 
G||-----------------------------------|-----------------------------------| 
D||-----------------------------------|-----------------------------------| 
A||-----------------------------------|-----------------------------------| 
D||-----------------------------------|-----------------------------------| 


                                                    
--12----15-14-15-14-17----15-14--L-|--12----15-14-15-14-17----12--12--| 
-----------------------------------|----------------------------------| 
-----------------------------------|----------------------------------| 
-----------------------------------|----------------------------------| 
-----------------------------------|----------------------------------| 
-----------------------------------|----------------------------------| 


                                                     
--12----15-14-15-14-17----15-14--L-|--12----15-14-15-14-17----15-14--L-| 
-----------------------------------|-----------------------------------| 
-----------------------------------|-----------------------------------| 
-----------------------------------|-----------------------------------| 
-----------------------------------|-----------------------------------| 
-----------------------------------|-----------------------------------| 


                                                    
--12----15-14-15-14-17----15-14--L-|--12----15-14-15-14-17----12--12--| 
-----------------------------------|----------------------------------| 
-----------------------------------|----------------------------------| 
-----------------------------------|----------------------------------| 
-----------------------------------|----------------------------------| 
-----------------------------------|----------------------------------| 


                                                           
-----------------15----|-----------------15----|-----------------15----| 
--17--------L----------|--17--------L----------|--15--------L----------| 
-----------------------|-----------------------|-----------------------| 
-----------------------|-----------------------|-----------------------| 
-----------------------|-----------------------|-----------------------| 
-----------------------|-----------------------|-----------------------| 


                                                             
------------15------------|-----------------15----|-----------------15----| 
--15--------------15--17--|--17--------L----------|--17--------L----------| 
--------------------------|-----------------------|-----------------------| 
--------------------------|-----------------------|-----------------------| 
--------------------------|-----------------------|-----------------------| 
--------------------------|-----------------------|-----------------------| 


                                                
-----------------15----|------------15------------|--------------------| 
--15--------L----------|--15--------------15--17--|--17----------------| 
-----------------------|--------------------------|--------------------| 
-----------------------|--------------------------|--------------------| 
-----------------------|--------------------------|--------------------| 
-----------------------|--------------------------|--------------------| 


-------------------|-------------------|-------------------|-------------------| 
-------------------|-------------------|-------------------|-------------------| 
-------------------|-------------------|-------------------|-------------------| 
-------------------|-------------------|-------------------|-------------------| 
-------------------|-------------------|-------------------|-------------------| 
-------------------|-------------------|-------------------|-------------------| 


-------------------|-------------------|-------------------| 
-------------------|-------------------|-------------------| 
-------------------|-------------------|-------------------| 
-------------------|-------------------|-------------------| 
-------------------|-------------------|-------------------| 
-------------------|-------------------|-------------------| 


                                                     
--12----15-14-15-14-17----15-14--L-|--12----15-14-15-14-17----15-14--L-| 
-----------------------------------|-----------------------------------| 
-----------------------------------|-----------------------------------| 
-----------------------------------|-----------------------------------| 
-----------------------------------|-----------------------------------| 
-----------------------------------|-----------------------------------| 


                                                    
--12----15-14-15-14-17----15-14--L-|--12----15-14-15-14-17----12--12--| 
-----------------------------------|----------------------------------| 
-----------------------------------|----------------------------------| 
-----------------------------------|----------------------------------| 
-----------------------------------|----------------------------------| 
-----------------------------------|----------------------------------| 


                                                     
--12----15-14-15-14-17----15-14--L-|--12----15-14-15-14-17----15-14--L-| 
-----------------------------------|-----------------------------------| 
-----------------------------------|-----------------------------------| 
-----------------------------------|-----------------------------------| 
-----------------------------------|-----------------------------------| 
-----------------------------------|-----------------------------------| 


                                                    
--12----15-14-15-14-17----15-14--L-|--12----15-14-15-14-17----12--12--| 
-----------------------------------|----------------------------------| 
-----------------------------------|----------------------------------| 
-----------------------------------|----------------------------------| 
-----------------------------------|----------------------------------| 
-----------------------------------|----------------------------------| 


                                                           
-----------------15----|-----------------15----|-----------------15----| 
--17--------L----------|--17--------L----------|--15--------L----------| 
-----------------------|-----------------------|-----------------------| 
-----------------------|-----------------------|-----------------------| 
-----------------------|-----------------------|-----------------------| 
-----------------------|-----------------------|-----------------------| 


                                                             
------------15------------|-----------------15----|-----------------15----| 
--15--------------15--17--|--17--------L----------|--17--------L----------| 
--------------------------|-----------------------|-----------------------| 
--------------------------|-----------------------|-----------------------| 
--------------------------|-----------------------|-----------------------| 
--------------------------|-----------------------|-----------------------| 


                                          
-----------------15----|------------15------------| 
--15--------L----------|--15--------------15--17--| 
-----------------------|--------------------------| 
-----------------------|--------------------------| 
-----------------------|--------------------------| 
-----------------------|--------------------------| 


                                                     
--12----15-14-15-14-17----15-14--L-|--12----15-14-15-14-17----15-14--L-| 
-----------------------------------|-----------------------------------| 
-----------------------------------|-----------------------------------| 
-----------------------------------|-----------------------------------| 
-----------------------------------|-----------------------------------| 
-----------------------------------|-----------------------------------| 


                                                    
--12----15-14-15-14-17----15-14--L-|--12----15-14-15-14-17----12--12--| 
-----------------------------------|----------------------------------| 
-----------------------------------|----------------------------------| 
-----------------------------------|----------------------------------| 
-----------------------------------|----------------------------------| 
-----------------------------------|----------------------------------| 


                                                     
--12----15-14-15-14-17----15-14--L-|--12----15-14-15-14-17----15-14--L-| 
-----------------------------------|-----------------------------------| 
-----------------------------------|-----------------------------------| 
-----------------------------------|-----------------------------------| 
-----------------------------------|-----------------------------------| 
-----------------------------------|-----------------------------------| 


                                                    
--12----15-14-15-14-17----15-14--L-|--12----15-14-15-14-17----12--12--| 
-----------------------------------|----------------------------------| 
-----------------------------------|----------------------------------| 
-----------------------------------|----------------------------------| 
-----------------------------------|----------------------------------| 
-----------------------------------|----------------------------------| 


                                                     
--12----15-14-15-14-17----15-14--L-|--12----15-14-15-14-17----15-14--L-| 
-----------------------------------|-----------------------------------| 
-----------------------------------|-----------------------------------| 
-----------------------------------|-----------------------------------| 
-----------------------------------|-----------------------------------| 
-----------------------------------|-----------------------------------| 


                                                    
--12----15-14-15-14-17----15-14--L-|--12----15-14-15-14-17----12--12--| 
-----------------------------------|----------------------------------| 
-----------------------------------|----------------------------------| 
-----------------------------------|----------------------------------| 
-----------------------------------|----------------------------------| 
-----------------------------------|----------------------------------| 


                                                     
--12----15-14-15-14-17----15-14--L-|--12----15-14-15-14-17----15-14--L-| 
-----------------------------------|-----------------------------------| 
-----------------------------------|-----------------------------------| 
-----------------------------------|-----------------------------------| 
-----------------------------------|-----------------------------------| 
-----------------------------------|-----------------------------------| 


                                                    
--12----15-14-15-14-17----15-14--L-|--12----15-14-15-14-17----12--12--| 
-----------------------------------|----------------------------------| 
-----------------------------------|----------------------------------| 
-----------------------------------|----------------------------------| 
-----------------------------------|----------------------------------| 
-----------------------------------|----------------------------------| 


                                                           
-----------------15----|-----------------15----|-----------------15----| 
--17--------L----------|--17--------L----------|--15--------L----------| 
-----------------------|-----------------------|-----------------------| 
-----------------------|-----------------------|-----------------------| 
-----------------------|-----------------------|-----------------------| 
-----------------------|-----------------------|-----------------------| 


                                                             
------------15------------|-----------------15----|-----------------15----| 
--15--------------15--17--|--17--------L----------|--17--------L----------| 
--------------------------|-----------------------|-----------------------| 
--------------------------|-----------------------|-----------------------| 
--------------------------|-----------------------|-----------------------| 
--------------------------|-----------------------|-----------------------| 


                                                
-----------------15----|------------15------------|--------------------|-----| 
--15--------L----------|--15--------------15--17--|--17----------------|-----| 
-----------------------|--------------------------|--------------------|-----| 
-----------------------|--------------------------|--------------------|-----| 
-----------------------|--------------------------|--------------------|-----| 
-----------------------|--------------------------|--------------------|-----| 


                                                              
-----|-----|-----|-----|-----|-----|--12----15-14-15-14-17----15-14--L-| 
-----|-----|-----|-----|-----|-----|-----------------------------------| 
-----|-----|-----|-----|-----|-----|-----------------------------------| 
-----|-----|-----|-----|-----|-----|-----------------------------------| 
-----|-----|-----|-----|-----|-----|-----------------------------------| 
-----|-----|-----|-----|-----|-----|-----------------------------------| 


                                                     
--12----15-14-15-14-17----15-14--L-|--12----15-14-15-14-17----15-14--L-| 
-----------------------------------|-----------------------------------| 
-----------------------------------|-----------------------------------| 
-----------------------------------|-----------------------------------| 
-----------------------------------|-----------------------------------| 
-----------------------------------|-----------------------------------| 


                                                     
--12----15-14-15-14-17----12--12--|--12----15-14-15-14-17----15-14--L-| 
----------------------------------|-----------------------------------| 
----------------------------------|-----------------------------------| 
----------------------------------|-----------------------------------| 
----------------------------------|-----------------------------------| 
----------------------------------|-----------------------------------| 


                                                     
--12----15-14-15-14-17----15-14--L-|--12----15-14-15-14-17----15-14--L-| 
-----------------------------------|-----------------------------------| 
-----------------------------------|-----------------------------------| 
-----------------------------------|-----------------------------------| 
-----------------------------------|-----------------------------------| 
-----------------------------------|-----------------------------------| 


                                                          
--12-------------------|-----------------15----|-----------------15----| 
-----------------------|--17--------L----------|--17--------L----------| 
-----------------------|-----------------------|-----------------------| 
-----------------------|-----------------------|-----------------------| 
-----------------------|-----------------------|-----------------------| 
-----------------------|-----------------------|-----------------------| 


                                                             
-----------------15----|------------15------------|-----------------15----| 
--15--------L----------|--15--------------15--17--|--17--------L----------| 
-----------------------|--------------------------|-----------------------| 
-----------------------|--------------------------|-----------------------| 
-----------------------|--------------------------|-----------------------| 
-----------------------|--------------------------|-----------------------| 


                                                               
-----------------15----|-----------------15----|------------15------------| 
--17--------L----------|--15--------L----------|--15--------------15--17--| 
-----------------------|-----------------------|--------------------------| 
-----------------------|-----------------------|--------------------------| 
-----------------------|-----------------------|--------------------------| 
-----------------------|-----------------------|--------------------------| 


                       
--------------------|-------------------|| 
--17----------------|--L----------------|| 
--------------------|-------------------|| 
--------------------|-------------------|| 
--------------------|-------------------|| 
--------------------|-------------------|| 


Guitar 4 

                                                        
E||----------------------|----------------------|----------------------| 
B||--8----5----5----5----|--8----5----5----5----|--8----5----5----5----| 
G||----------------------|----------------------|----------------------| 
D||----------------------|----------------------|----------------------| 
A||----------------------|----------------------|----------------------| 
E||----------------------|----------------------|----------------------| 


                                                     
-----------------------|----------------------|----------------------| 
--8----5----5----8--8--|--8----5----5----5----|--8----5----5----5----| 
-----------------------|----------------------|----------------------| 
-----------------------|----------------------|----------------------| 
-----------------------|----------------------|----------------------| 
-----------------------|----------------------|----------------------| 


                                                        
----------------------|-----------------------|--0--0-0-0--0-0--0-0--0--0-0-| 
--8----5----5----5----|--8----5----5----8--8--|--0--0-0-0--0-0--0-0--0--0-0-| 
----------------------|-----------------------|--0--0-0-0--0-0--0-0--0--0-0-| 
----------------------|-----------------------|--2--2-2-2--2-2--2-2--2--2-2-| 
----------------------|-----------------------|--2--2-2-2--2-2--2-2--2--2-2-| 
----------------------|-----------------------|--0--0-0-0--0-0--0-0--0--0-0-| 


                                     
--0--0-0-0--0-0--0-0--0--0-0-|--3--3-3-3--3-3--3-3--3--3-3-| 
--1--1-1-1--1-1--1-1--1--1-1-|--0--0-0-0--0-0--0-0--0--0-0-| 
--0--0-0-0--0-0--0-0--0--0-0-|--0--0-0-0--0-0--0-0--0--0-0-| 
--2--2-2-2--2-2--2-2--2--2-2-|--0--0-0-0--0-0--0-0--0--0-0-| 
--3--3-3-3--3-3--3-3--3--3-3-|--2--2-2-2--2-2--2-2--2--2-2-| 
-----------------------------|--3--3-3-3--3-3--3-3--3--3-3-| 


                                     
--0--0-0-0--0-0--0-0--0--0-0-|--0--0-0-0--0-0--0-0--0--0-0-| 
--3--3-3-3--3-3--3-3--3--3-3-|--0--0-0-0--0-0--0-0--0--0-0-| 
--2--2-2-2--2-2--2-2--2--2-2-|--0--0-0-0--0-0--0-0--0--0-0-| 
--0--0-0-0--0-0--0-0--0--0-0-|--2--2-2-2--2-2--2-2--2--2-2-| 
--0--0-0-0--0-0--0-0--0--0-0-|--2--2-2-2--2-2--2-2--2--2-2-| 
--2--2-2-2--2-2--2-2--2--2-2-|--0--0-0-0--0-0--0-0--0--0-0-| 


                                     
--0--0-0-0--0-0--0-0--0--0-0-|--3--3-3-3--3-3--3-3--3--3-3-| 
--1--1-1-1--1-1--1-1--1--1-1-|--0--0-0-0--0-0--0-0--0--0-0-| 
--0--0-0-0--0-0--0-0--0--0-0-|--0--0-0-0--0-0--0-0--0--0-0-| 
--2--2-2-2--2-2--2-2--2--2-2-|--0--0-0-0--0-0--0-0--0--0-0-| 
--3--3-3-3--3-3--3-3--3--3-3-|--2--2-2-2--2-2--2-2--2--2-2-| 
-----------------------------|--3--3-3-3--3-3--3-3--3--3-3-| 


                      
--0--0-0-0--0-0--0-0--0--0-0-|--0----------------|-------------------| 
--3--3-3-3--3-3--3-3--3--3-3-|--0----------------|-------------------| 
--2--2-2-2--2-2--2-2--2--2-2-|--0----------------|-------------------| 
--0--0-0-0--0-0--0-0--0--0-0-|--2----------------|-------------------| 
--0--0-0-0--0-0--0-0--0--0-0-|--2----------------|-------------------| 
--2--2-2-2--2-2--2-2--2--2-2-|--0----------------|-------------------| 


-------------------|-------------------|-------------------|-------------------| 
-------------------|-------------------|-------------------|-------------------| 
-------------------|-------------------|-------------------|-------------------| 
-------------------|-------------------|-------------------|-------------------| 
-------------------|-------------------|-------------------|-------------------| 
-------------------|-------------------|-------------------|-------------------| 


                                                       
-------------------|-------------------|----------------------| 
-------------------|-------------------|--8----5----5----5----| 
-------------------|-------------------|----------------------| 
-------------------|-------------------|----------------------| 
-------------------|-------------------|----------------------| 
-------------------|-------------------|----------------------| 


                                                       
----------------------|----------------------|-----------------------| 
--8----5----5----5----|--8----5----5----5----|--8----5----5----8--8--| 
----------------------|----------------------|-----------------------| 
----------------------|----------------------|-----------------------| 
----------------------|----------------------|-----------------------| 
----------------------|----------------------|-----------------------| 


                                                     
----------------------|----------------------|----------------------| 
--8----5----5----5----|--8----5----5----5----|--8----5----5----5----| 
----------------------|----------------------|----------------------| 
----------------------|----------------------|----------------------| 
----------------------|----------------------|----------------------| 
----------------------|----------------------|----------------------| 


                                     
-----------------------|--0--0-0-0--0-0--0-0--0--0-0-| 
--8----5----5----8--8--|--0--0-0-0--0-0--0-0--0--0-0-| 
-----------------------|--0--0-0-0--0-0--0-0--0--0-0-| 
-----------------------|--2--2-2-2--2-2--2-2--2--2-2-| 
-----------------------|--2--2-2-2--2-2--2-2--2--2-2-| 
-----------------------|--0--0-0-0--0-0--0-0--0--0-0-| 


                                     
--0--0-0-0--0-0--0-0--0--0-0-|--3--3-3-3--3-3--3-3--3--3-3-| 
--1--1-1-1--1-1--1-1--1--1-1-|--0--0-0-0--0-0--0-0--0--0-0-| 
--0--0-0-0--0-0--0-0--0--0-0-|--0--0-0-0--0-0--0-0--0--0-0-| 
--2--2-2-2--2-2--2-2--2--2-2-|--0--0-0-0--0-0--0-0--0--0-0-| 
--3--3-3-3--3-3--3-3--3--3-3-|--2--2-2-2--2-2--2-2--2--2-2-| 
-----------------------------|--3--3-3-3--3-3--3-3--3--3-3-| 


                                     
--0--0-0-0--0-0--0-0--0--0-0-|--0--0-0-0--0-0--0-0--0--0-0-| 
--3--3-3-3--3-3--3-3--3--3-3-|--0--0-0-0--0-0--0-0--0--0-0-| 
--2--2-2-2--2-2--2-2--2--2-2-|--0--0-0-0--0-0--0-0--0--0-0-| 
--0--0-0-0--0-0--0-0--0--0-0-|--2--2-2-2--2-2--2-2--2--2-2-| 
--0--0-0-0--0-0--0-0--0--0-0-|--2--2-2-2--2-2--2-2--2--2-2-| 
--2--2-2-2--2-2--2-2--2--2-2-|--0--0-0-0--0-0--0-0--0--0-0-| 


                                     
--0--0-0-0--0-0--0-0--0--0-0-|--3--3-3-3--3-3--3-3--3--3-3-| 
--1--1-1-1--1-1--1-1--1--1-1-|--0--0-0-0--0-0--0-0--0--0-0-| 
--0--0-0-0--0-0--0-0--0--0-0-|--0--0-0-0--0-0--0-0--0--0-0-| 
--2--2-2-2--2-2--2-2--2--2-2-|--0--0-0-0--0-0--0-0--0--0-0-| 
--3--3-3-3--3-3--3-3--3--3-3-|--2--2-2-2--2-2--2-2--2--2-2-| 
-----------------------------|--3--3-3-3--3-3--3-3--3--3-3-| 


                                                     
--0--0-0-0--0-0--0-0--0--0-0-|----------------------|----------------------| 
--3--3-3-3--3-3--3-3--3--3-3-|--8----5----5----5----|--8----5----5----5----| 
--2--2-2-2--2-2--2-2--2--2-2-|----------------------|----------------------| 
--0--0-0-0--0-0--0-0--0--0-0-|----------------------|----------------------| 
--0--0-0-0--0-0--0-0--0--0-0-|----------------------|----------------------| 
--2--2-2-2--2-2--2-2--2--2-2-|----------------------|----------------------| 


                                                     
----------------------|-----------------------|----------------------| 
--8----5----5----5----|--8----5----5----8--8--|--8----5----5----5----| 
----------------------|-----------------------|----------------------| 
----------------------|-----------------------|----------------------| 
----------------------|-----------------------|----------------------| 
----------------------|-----------------------|----------------------| 


                                                       
----------------------|----------------------|-----------------------| 
--8----5----5----5----|--8----5----5----5----|--8----5----5----8--8--| 
----------------------|----------------------|-----------------------| 
----------------------|----------------------|-----------------------| 
----------------------|----------------------|-----------------------| 
----------------------|----------------------|-----------------------| 


                                                     
----------------------|----------------------|----------------------| 
--8----5----5----5----|--8----5----5----5----|--8----5----5----5----| 
----------------------|----------------------|----------------------| 
----------------------|----------------------|----------------------| 
----------------------|----------------------|----------------------| 
----------------------|----------------------|----------------------| 


                                                     
-----------------------|----------------------|----------------------| 
--8----5----5----8--8--|--8----5----5----5----|--8----5----5----5----| 
-----------------------|----------------------|----------------------| 
-----------------------|----------------------|----------------------| 
-----------------------|----------------------|----------------------| 
-----------------------|----------------------|----------------------| 


                                                       
----------------------|-----------------------|--0--0--0--0--0--0--0--0--| 
--8----5----5----5----|--8----5----5----8--8--|--0--0--0--0--0--0--0--0--| 
----------------------|-----------------------|--0--0--0--0--0--0--0--0--| 
----------------------|-----------------------|--2--2--2--2--2--2--2--2--| 
----------------------|-----------------------|--2--2--2--2--2--2--2--2--| 
----------------------|-----------------------|--0--0--0--0--0--0--0--0--| 


                                    
--0--0--0--0--0--0--0--0--|--3--3--3--3--3--3--3--3--| 
--1--1--1--1--1--1--1--1--|--0--0--0--0--0--0--0--0--| 
--0--0--0--0--0--0--0--0--|--0--0--0--0--0--0--0--0--| 
--2--2--2--2--2--2--2--2--|--0--0--0--0--0--0--0--0--| 
--3--3--3--3--3--3--3--3--|--2--2--2--2--2--2--2--2--| 
--------------------------|--3--3--3--3--3--3--3--3--| 


                                    
--0--0--0--0--0--0--0--0--|--0--0--0--0--0--0--0--0--| 
--3--3--3--3--3--3--3--3--|--0--0--0--0--0--0--0--0--| 
--2--2--2--2--2--2--2--2--|--0--0--0--0--0--0--0--0--| 
--0--0--0--0--0--0--0--0--|--2--2--2--2--2--2--2--2--| 
--0--0--0--0--0--0--0--0--|--2--2--2--2--2--2--2--2--| 
--2--2--2--2--2--2--2--2--|--0--0--0--0--0--0--0--0--| 


                                    
--0--0--0--0--0--0--0--0--|--3--3--3--3--3--3--3--3--| 
--1--1--1--1--1--1--1--1--|--0--0--0--0--0--0--0--0--| 
--0--0--0--0--0--0--0--0--|--0--0--0--0--0--0--0--0--| 
--2--2--2--2--2--2--2--2--|--0--0--0--0--0--0--0--0--| 
--3--3--3--3--3--3--3--3--|--2--2--2--2--2--2--2--2--| 
--------------------------|--3--3--3--3--3--3--3--3--| 


                      
--0--0--0--0--0--0--0--0--|--0----------------|-----|-----|-----|-----|-----| 
--3--3--3--3--3--3--3--3--|--0----------------|-----|-----|-----|-----|-----| 
--2--2--2--2--2--2--2--2--|--0----------------|-----|-----|-----|-----|-----| 
--0--0--0--0--0--0--0--0--|--2----------------|-----|-----|-----|-----|-----| 
--0--0--0--0--0--0--0--0--|--2----------------|-----|-----|-----|-----|-----| 
--2--2--2--2--2--2--2--2--|--0----------------|-----|-----|-----|-----|-----| 


                                              
-----|-----|----------------------|----------------------| 
-----|-----|--8----5----5----5----|--8----5----5----5----| 
-----|-----|----------------------|----------------------| 
-----|-----|----------------------|----------------------| 
-----|-----|----------------------|----------------------| 
-----|-----|----------------------|----------------------| 


                                                     
----------------------|-----------------------|----------------------| 
--8----5----5----5----|--8----5----5----8--8--|--8----5----5----5----| 
----------------------|-----------------------|----------------------| 
----------------------|-----------------------|----------------------| 
----------------------|-----------------------|----------------------| 
----------------------|-----------------------|----------------------| 


                                                     
----------------------|----------------------|----------------------| 
--8----5----5----5----|--8----5----5----5----|--8-------------------| 
----------------------|----------------------|----------------------| 
----------------------|----------------------|----------------------| 
----------------------|----------------------|----------------------| 
----------------------|----------------------|----------------------| 


                                     
--0--0-0-0--0-0--0-0--0--0-0-|--0--0-0-0--0-0--0-0--0--0-0-| 
--0--0-0-0--0-0--0-0--0--0-0-|--1--1-1-1--1-1--1-1--1--1-1-| 
--0--0-0-0--0-0--0-0--0--0-0-|--0--0-0-0--0-0--0-0--0--0-0-| 
--2--2-2-2--2-2--2-2--2--2-2-|--2--2-2-2--2-2--2-2--2--2-2-| 
--2--2-2-2--2-2--2-2--2--2-2-|--3--3-3-3--3-3--3-3--3--3-3-| 
--0--0-0-0--0-0--0-0--0--0-0-|-----------------------------| 


                                     
--3--3-3-3--3-3--3-3--3--3-3-|--0--0-0-0--0-0--0-0--0--0-0-| 
--0--0-0-0--0-0--0-0--0--0-0-|--3--3-3-3--3-3--3-3--3--3-3-| 
--0--0-0-0--0-0--0-0--0--0-0-|--2--2-2-2--2-2--2-2--2--2-2-| 
--0--0-0-0--0-0--0-0--0--0-0-|--0--0-0-0--0-0--0-0--0--0-0-| 
--2--2-2-2--2-2--2-2--2--2-2-|--0--0-0-0--0-0--0-0--0--0-0-| 
--3--3-3-3--3-3--3-3--3--3-3-|--2--2-2-2--2-2--2-2--2--2-2-| 


                                     
--0--0-0-0--0-0--0-0--0--0-0-|--0--0-0-0--0-0--0-0
less
plus
Add to Songbook Print Version How to play lesson Submit videolesson
Click the best TAGS for this song:
None of them
Contributor: simsGARR Correct

If you can not find the chords or tabs you want, look at our partner E-chords. If you are a premium member, you have total access to our video lessons.

If you find a wrong Bad To Me from Hollywood Undead, click the correct button above.

login/signup
my songbooks
my recent views
my submits