I Am This

Sea Of Something tab

I Am This

tools Ultimate Tabs

Start AutoScroll Font Size Down Font Size Up

Find us on Facebook

chords
tabs
bass
ukulele
keyboards
drums
flute
harmonica
guitar pro
video
Ultimate-Tabs

Sea Of Something


E-----------------|----0------------|---3--------1----|----------0------| 
B-------------1---|-------1---------|------1----------|----1------------| 
G-------2---------|----------2------|---------2-------|-------2---------| 
D----3-----2------|-----------------|-----------------|-----------------| 
A-----------------|-----------------|-----------------|-----------------| 
E-----------------|-----------------|-----------------|-----------------| 

E-----------------|-----------------|-----------------|-----------------| 
B-----------------|----3--1---------|----3--1-----1---|----0-----0------| 
G----------0------|----------0------|----------0------|-------0---------| 
D-------2-----2---|-----------------|-----------------|-----------------| 
A----3------------|-----------------|-----------------|-----------------| 
E-----------------|-----------------|-----------------|-----------------| 

E-----------------|-----------------|----0------------|-----------------| 
B-----------------|----3------------|-------3-----0---|-----------------| 
G-----------------|-------0---------|----------0------|----0-----0------| 
D----------0------|----------0------|-----------------|-------0-----0---| 
A-------2-----2---|-----------------|-----------------|-----------------| 
E----3------------|-----------------|-----------------|-----------------| 

E-----------------|-----------------|-----------------|-----------------| 
B-------------1---|----------1------|-------------0---|----------0------| 
G----------2------|----2--------2---|----------1------|----1--------1---| 
D-------2---------|-------2---------|-----------------|-------2---------| 
A----0------------|-----------------|-------2---------|-----------------| 
E-----------------|-----------------|----0------------|-----------------|  
less
plus
Add to Songbook Print Version How to play lesson Submit videolesson
Click the best TAGS for this song:
None of them
Contributor: jmakdini Correct

If you can not find the chords or tabs you want, look at our partner E-chords. If you are a premium member, you have total access to our video lessons.

If you find a wrong Bad To Me from I Am This, click the correct button above.

login/signup
my songbooks
my recent views
my submits