I Blame Coco

No Smile (acoustic) tab

I Blame Coco

tools Ultimate Tabs

Start AutoScroll Font Size Down Font Size Up

Find us on Facebook

chords
tabs
bass
ukulele
keyboards
drums
flute
harmonica
guitar pro
video
Ultimate-Tabs

No Smile (acoustic)

Here's my tab for the acoustic version of No Smile, found here:  
http://www.youtube.com/watch?v=qwf3VoRiO6o. 

I'm not sure if it's identical, but I think it sounds quite similar. Look at the video  
and listen to how she plays it, to get the rhythm right. It's pretty much the same thing  
the whole song through. 

Great song, hope you enjoy it! 

verse 1: 
E|-----------------------------------| 
B|-----------------------------------| 
G|---4-4-----4-4----4-4-4-4----------| 
D|---5-5-----5-5----5-5-5-5----------|   x3 
A|-7-------5------3------------------| 
E|-----------------------------------| 
   Have you ever caught a smile? That you know you'd always love it? 
   See, even if it vomits bile, you'd only miss it. 
   It turns upside down and cries, and you just want to kiss it. 

E|--------------------------12-------| 
B|--------------------------12-------| 
G|---4-4-----4-4----4-------12-------| 
D|---5-5-----5-5----5----------------| 
A|-7-------5------3------------------| 
E|-----------------------------------| 
   I get the feeling from your eyes, no, no, this time you won't dismiss it. 

E|-----------------------------------| 
B|-----------------------------------| 
G|---4-4-----4-4----4-4-4-4----------| 
D|---5-5-----5-5----5-5-5-5----------|   x4 
A|-7-------5------3------------------| 
E|-----------------------------------| 
   From a seven storey building I think of you 
   Obsessive minds, like mine, are speed dialing you 
   And fragments of your face race around this lonely place 
   And I jump for you 


E|--5-----3-----2--------------------| 
B|--5-----3-----4--------------------| 
G|--5-----4-----4------4-4-4---------| 
D|--7-----5-----4------5-5-5-4-------| 
A|--7-----5-----2----7---------7-----| 
E|--5-----3-----2--------------------| 
    Am    G     B 
  So got no time to waste, 'cause there's no smile here 

Chorus: 

E|-----------------------------------| 
B|-----------------------------------| 
G|---4-4-----4-4----4-4-4-4----------| 
D|---5-5-----5-5----5-5-5-5----------|   x4 
A|-7-------5------3------------------| 
E|-----------------------------------| 

'Cause I promised I would constantly love you until the day I die, 
I promised I would constantly love you until the end of time. 
Promised I would constantly love you, until the day i die, 
I promised I would constantly love you. 

verse 2: 

E|-----------------------------------| 
B|-----------------------------------| 
G|---4-4-----4-4----4-4-4-4----------| 
D|---5-5-----5-5----5-5-5-5----------|   x3 
A|-7-------5------3------------------| 
E|-----------------------------------| 
   I need you  in sickness, I need you in health. 
   I need you on my guest list, I need you by myself. 
   So be apart forever, baby boy you're mine, 

E|--------------------------12-------| 
B|--------------------------12-------| 
G|---4-4-----4-4---4--------12-------| 
D|---5-5-----5-5---5-----------------| 
A|-7-------5-------3-----------------| 
E|-----------------------------------| 

  But nothing lasts forever, so instead I'll take my life. 

E|--5-----3-----2--------------------| 
B|--5-----3-----4--------------------| 
G|--5-----4-----4------4-4-4---------| 
D|--7-----5-----4------5-5-5-4-------| 
A|--7-----5-----2----7---------7-----| 
E|--5-----3-----2--------------------| 
    Am    G     B 
  So got no time to waste, 'cause there?s no smile here 


Chorus: 

E|-----------------------------------| 
B|-----------------------------------| 
G|---4-4-----4-4----4-4-4-4----------| 
D|---5-5-----5-5----5-5-5-5----------|   x4 
A|-7-------5------3------------------| 
E|-----------------------------------| 

'Cause I promised I would constantly love you until the day I die, 
I promised I would constantly love you until the end of time. 
Promised I would constantly love you, until the day i die, 
I promised I would constantly love you. 

E|-----------------------------------| 
B|-----------------------------------| 
G|---4-4-----4-4----4-4-4-4----------| 
D|---5-5-----5-5----5-5-5-5----------|   x3 
A|-7-------5------3------------------| 
E|-----------------------------------| 
  I love you but there's no smile here, x6 

E|------------------------------0----| 
B|------------------------------0----| 
G|---4-4-----4-4----4-4-4-------0----| 
D|---5-5-----5-5----5-5-5-------2----| 
A|-7-------5------3-------------2----| 
E|------------------------------0----| 
                                Em 
  I love you but there's no smile here, 
  no smile tomorrow.  
less
plus
Add to Songbook Print Version How to play lesson Submit videolesson
Click the best TAGS for this song:
None of them
Contributor: d.r.MDMC Correct

If you can not find the chords or tabs you want, look at our partner E-chords. If you are a premium member, you have total access to our video lessons.

If you find a wrong Bad To Me from I Blame Coco, click the correct button above.

login/signup
my songbooks
my recent views
my submits