illuminati hotties

You're Better Than Ever tab

illuminati hotties

tools Ultimate Tabs

Start AutoScroll Font Size Down Font Size Up

Find us on Facebook

chords
tabs
bass
ukulele
keyboards
drums
flute
harmonica
guitar pro
video
Ultimate-Tabs

You're Better Than Ever

------------------------------------------------
 (You're Better) Than Ever ~ illuminati hotties
------------------------------------------------



Verse 1

e|---------------------------------------------------------------|
B|---------------------------------------------------------------|
G|-6-6-6-6-6-6-6-6-6-6-6-6-6-6-6-6-6-6-6-6-6-6-6-6-6-6-6-6-6-6-6-|
D|-7-7-7-7-7-7-7-7-7-7-7-7-7-7-7-7-7-7-7-7-7-7-7-7-7-7-7-7-7-7-7-|
A|-7-7-7-7-7-7-7-7-7-7-7-7-7-7-7-7-7-7-7-7-7-7-7-7-7-7-7-7-7-7-7-|
E|-5-5-5-5-5-5-5-5-5-5-5-5-5-5-5-5-5-5-5-5-5-5-5-5-5-5-5-5-5-5-5-|

e|---------------------------------------------------------------|
B|-5-5-5-5-5-5-5-5-5-5-5-5-5-4-4-3-3-3-3-3-3-3-3-3-3-3-3-3-3-3-3-|
G|-6-6-6-6-6-6-6-6-6-6-6-6-6-5-5-4-4-4-4-4-4-4-4-4-4-4-4-4-4-4-4-|
D|-6-6-6-6-6-6-6-6-6-6-6-6-6-5-5-4-4-4-4-4-4-4-4-4-4-4-4-4-4-4-4-|
A|-4-4-4-4-4-4-4-4-4-4-4-4-4-3-3-2-2-2-2-2-2-2-2-2-2-2-2-2-2-2-2-|
E|---------------------------------------------------------------|

e|---------------------------------------------------------------|
B|---------------------------------------------------------------|
G|-6-6-6-6-6-6-6-6-6-6-6-6-6-6-6-6-6-6-6-6-6-6-6-6-6-------------|
D|-7-7-7-7-7-7-7-7-7-7-7-7-7-7-7-7-7-7-7-7-7-7-7-7-7-------------|
A|-7-7-7-7-7-7-7-7-7-7-7-7-7-7-7-7-7-7-7-7-7-7-7-7-7-------------|
E|-5-5-5-5-5-5-5-5-5-5-5-5-5-5-5-5-5-5-5-5-5-5-5-5-5-------------|



Chorus

e|10-----------------------|-------------------------|-9-----------------------|-------------------------|
B|10-----------------------|-------------------------|-9-----------------------|-------------------------|
G|11-----------------------|-------------------------|-9-----------------------|-------------------------|
D|12-----------------------|-------------------------|11-----------------------|-------------------------|
A|12-----------------------|-------------------------|11-----------------------|-------------------------|
E|10-----------------------|-------------------------|-9-----------------------|-------------------------|
 |                         |                         |                         |                         |
 |                         |                         |                         |                         |
e|-------------------------|-------------------------|-------------------------|-------------------------|
B|-------------------------|-------------------------|-------------------------|-------------------------|
G|-------------------------|-------------------------|-------------------------|-------------------------|
D|-------------------------|-------------------------|-------------------------|-------------------------|
A|-------------9-11----12--|---11-----9--------------|11-----------7-----------|-------------------------|
E|-------------------------|-------------------------|----------------------9--|-------------------------|

e|-7-----------------------|-------------------------|-5-----------------------|-------------------------|
B|-7-----------------------|-------------------------|-5-----------------------|-------------------------|
G|-7-----------------------|-------------------------|-6-----------------------|-------------------------|
D|-9-----------------------|-------------------------|-7-----------------------|-------------------------|
A|-9-----------------------|-------------------------|-7-----------------------|-------------------------|
E|-7-----------------------|-------------------------|-5-----------------------|-------------------------|
 |                         |                         |                         |                         |
 |                         |                         |                         |                         |
e|-------------------------|-------------------------|-------------------------|-------------------------|
B|-------------------------|-------------------------|-------------------------|-------------------------|
G|-------------------------|-------------------------|-------------------------|-------------------------|
D|-------------------------|-------------------------|-------------------------|-------------------------|
A|-------------------------|-------------------------|-7-----------------------|-------------------------|
E|-------------7--9----10--|----9-----7--------------|-------------------------|-------------------------|

e|10-----------------------|-------------------------|-9-----------------------|-------------------------|
B|10-----------------------|-------------------------|-9-----------------------|-------------------------|
G|11-----------------------|-------------------------|-9-----------------------|-------------------------|
D|12-----------------------|-------------------------|11-----------------------|-------------------------|
A|12-----------------------|-------------------------|11-----------------------|-------------------------|
E|10-----------------------|-------------------------|-9-----------------------|-------------------------|
 |                         |                         |                         |                         |
 |                         |                         |                         |                         |
e|-------------------------|-------------------------|-------------------------|-------------------------|
B|-------------------------|-------------------------|-------------------------|-------------------------|
G|-------------------------|-------------------------|-------------------------|-------------------------|
D|-------------------------|-------------------------|-------------------------|-------------------------|
A|-------------9-11----12--|---11-----9--------------|11-----------7-----------|-------------------------|
E|-------------------------|-------------------------|----------------------9--|-------------------------|

e|-7-----------------------|-------------------------|-7-----------------------|-------------------------|
B|-7-----------------------|-------------------------|-9-----------------------|-------------------------|
G|-7-----------------------|-------------------------|-7-----------------------|-------------------------|
D|-9-----------------------|-------------------------|-9-----------------------|-------------------------|
A|-9-----------------------|-------------------------|-7-----------------------|-------------------------|
E|-7-----------------------|-------------------------|-------------------------|-------------------------|
 |                         |                         |                         |                         |
 |                         |                         |                         |                         |
e|-------------------------|-------------------------|-------------------------|-------------------------|
B|-------------------------|-------------------------|-------------------------|-------------------------|
G|-------------------------|-------------------------|-------------------------|-------------------------|
D|-------------------------|-------------------------|-------------------------|-------------------------|
A|-------------------------|-------------------------|-7-------------------X-X-|-X-----------------------|
E|-------------7--9----10--|----9-----7--------------|---------------------X-X-|-X-----------------------|



Verse 2

Palm mute Verse 1



Chorus

Repeat first Chorus



Verse 3

e|------7-------7------7------7------7-------7------7------7------7-------7-|
B|---10-----10------10-----10-----10-----10------10-----10-----10-----10----|
G|-9------9-------9------9------9------9-------9------9------9------9-------|
D|--------------------------------------------------------------------------|
A|--------------------------------------------------------------------------|
E|--------------------------------------------------------------------------|





************************************

| x   Dead note
| g   Grace note
| (n) Ghost note
| h   Hammer-on
| p   Pull-off
| r   Release
| >   Accented note
| t   Tapping
| b   Bend
| br  Bend release
| pb  Pre-bend
| pbr Pre-bend release
| /   Slide up
| \   Slide down
| ~   Vibrato
| s   Slap
| P   Pop
| PM  Palm mute
| TR  Trill
| N   Tremolo

************************************
less
plus
Add to Songbook Print Version How to play lesson Submit videolesson
Click the best TAGS for this song:
None of them
Contributor: Anonymous Correct

If you can not find the chords or tabs you want, look at our partner E-chords. If you are a premium member, you have total access to our video lessons.

If you find a wrong Bad To Me from illuminati hotties, click the correct button above.

login/signup
my songbooks
my recent views
my submits