tools Ultimate Tabs

Start AutoScroll Font Size Down Font Size Up

Find us on Facebook

chords
tabs
bass ukulele keyboards
drums
flute
harmonica
guitar pro
video
Ultimate-Tabs

America

INTRO 

SYNTH 
(prob has delay) 
E|-------------------| 
B|----------------13-| 
G|-------------------| 
D|-10101010101010----| 
A|-------------------| 
E|-------------------| 

INTRO (part 2 and Verse) 

Electric 1* 
E|-------------------------------| 
B|-------------------------------| 
G|-------------------------14-14-| 
D|-17-14-17-14-17-14-17-14-------| 
A|-------------------------------| 
E|-------------------------------| 

Electric 2 
E|----------------------| 
B|----------------------| 
G|----------------------| 
D|----------------------| 
A|----------------------| 
E|-12-13-8-12-13-8-12-8-| 

VERSE (part 2) 

Electric 3 
(pick gently while putting light pressure to make a ticking noise) 
E|----| 
B|-14-| 
G|----| 
D|----| 
A|----| 
E|----| 

Electric 1 
(hold each one) 
E|--------| 
B|-12--13-| 
G|--------| 
D|--------| 
A|--------| 
E|--------| 

Chorus 

Electric 1 
   (pick) 
E|-8--5-12-| 
B|-10-6-13-| 
G|-9--5-12-| 
D|---------| 
A|---------| 
E|---------| 

Electric 2 
  (strum) 
E|-8--5-12-| 
B|-10-6-13-| 
G|-9--5-12-| 
D|---------| 
A|---------| 
E|---------| 

Zylophone (sort of) 
 (optional) 
E|--------------------------------------------| 
B|---------------10-12-13-12-10---------------| 
G|-------9-10-12----------------12-10-9-------| 
D|-10-12--------------------------------12-10-| 
A|--------------------------------------------| 
E|--------------------------------------------| 

verse 3 (same as up top but add riff marked *) 

verse 4 (same but add this) 

Electric 3 
  (picking with delay) 
E|----------------------| 
B|----------------------| 
G|-12-11-9--12-12-11-12-| 
D|-12-12-12-12-12-12-12-| 
A|----------------------| 
E|----------------------| 


Chorus 

Solo 

Electric 1 
E|------------------------------------| 
B|------------------------------------| 
G|-9h12121212121212121212/14----------| 
D|---------------------------10h12/14-| x2 
A|------------------------------------| 
E|------------------------------------| 

|-------------------------| 
|-------------------------| 
|-12/14-17171717-14-12----| 
|----------------------14-| x2 
|-------------------------| 
|-------------------------| 

|--------------------------------| 
|--------------------------------| 
|-------------12b----------------| 
|-12r10h12/14-12b-14-12-10----10-| 
|--------------------------12----| 
|--------------------------------| 

|-------------------------------------------------------------------| 
|--------------------------------18--17--18--17--18--20--17--19--20-| 
|------------------------------17--17--17--17--17--17--17--17--17---| 
|---15--14--12--10--15--14--12--------------------------------------| 
|-12--12--12--12--12--12--12----------------------------------------| 
|-------------------------------------------------------------------| 

P.S. solo might be off posting corrections would really help me out :)  
less
plus
Add to Songbook Print Version How to play lesson Submit videolesson
Click the best TAGS for this song:
None of them
Contributor: diancyy8 Correct

If you can not find the chords or tabs you want, look at our partner E-chords. If you are a premium member, you have total access to our video lessons.

If you find a wrong Bad To Me from Imagine Dragons, click the correct button above.

login/signup
my songbooks
my recent views
my submits