S Imagine Dragons

Curse tab

Imagine Dragons

Album:Imagine Dragons

Year:2009

tools Ultimate Tabs

Start AutoScroll Font Size Down Font Size Up

Find us on Facebook

chords
tabs
bass
ukulele keyboards
drums
flute
harmonica
guitar pro
video
Ultimate-Tabs

Curse

Intro 

Electric 1 
Clean 

E|------------    -----------| 
B|------------    -----------| 
G|-8----------    -----------| 
D|---6-6-5/10- X4 --8-10-6-5-| 
A|------------    -----------| 
D|------------    -----------| 

Intro (part 2) 

Electric 1 
Mild distortion 

E|--------------------------------------------------------------------| 
B|--------------------------------------------------------------------| 
G|---------15-12-------------15-12---------------------15-12----------| 
D|-10-1010-------13b-10-1010-------13-12-13-12-10-1010-------13-13-13-| 
A|--------------------------------------------------------------------| 
D|--------------------------------------------------------------------| 

 ----------------10-10-10-10-10b-| 
 ---------13--13-----------------| 
 --15--15---12-------------------| 
 ----13--------------------------| 
 --------------------------------| 
 --------------------------------| 

Electric 2 
Mild distortion 

E|--------------| 
B|--------------| 
G|--------------| 
D|-10--13--6--3-| 
A|-10--13--6--3-| 
D|-10--13--6--3-| 

Verse 

Electric 2 
Mild distortion 

E|--------------| 
B|--------------| 
G|--------------| 
D|--------------| 
A|--------------| 
D|-10--13--6--3-| 
   *   *   *  * 

Pre-chorus 

Electric 2 
Mild distortion 

E|--------------| 
B|--------------| 
G|--------------| 
D|-10-13-6-3-68-| 
A|-10-13-6-3-68-| 
D|-10-13-6-3-68-| 
   *  *  * * ** 

Chorus 

Electric 1+2 
Mild distortion 

E|---------------------------------------------| 
B|---------------------------------------------| 
G|---------------------------------------------| 
D|-10-10-10-10-13-13-13-151715-6-6-6-6-3-3-3-3-| 
A|-10-10-10-10-13-13-13-151715-6-6-6-6-3-3-3-3-| 
D|-10-10-10-10-13-13-13-151715-6-6-6-6-3-3-3-3-| 
   *  *  *  *  *  *  *  * * *  * * * * * * * * 

Intro (part 2) 

Verse 

Then 

Electric 2 
Mild distortion 

E|------------------------------------------------| 
B|------------------------------------------------| 
G|------------------------------------------------| 
D|------------------------------------------------| 
A|-10-1010-17-15-8-6-15-17-15-10-1010-17-15-8-6-3-| 
D|-10-1010-17-15-8-6-15-17-15-10-1010-17-15-8-6-3-| 

Pre-chorus 

Chorus 

Intro (part 1) 

Pre-chorus 

Chorus
  
less
plus
Add to Songbook Print Version How to play lesson Submit videolesson
Click the best TAGS for this song:
None of them
Contributor: oxoxmicd Correct

If you can not find the chords or tabs you want, look at our partner E-chords. If you are a premium member, you have total access to our video lessons.

If you find a wrong Bad To Me from Imagine Dragons, click the correct button above.

login/signup
my songbooks
my recent views
my submits