tools Ultimate Tabs

Start AutoScroll Font Size Down Font Size Up

Find us on Facebook

chords
tabs
bass
ukulele keyboards
drums
flute
harmonica
guitar pro
video
Ultimate-Tabs

Emma

INTRO 

Electric 1 
(palm mute with delay) 
E|--------------------| 
B|------------9-------| 
G|----10---10---10----| 
D|-88----8---------88-| 
A|--------------------| 
E|--------------------| 

Synth/Electric 3 

E|---------------------------| 
B|---------------------------| 
G|---------------------------| 
D|-8/16/18\15\11--8/16/18\15-| 
A|---------------------------| 
E|---------------------------| 

Electric 2 
          (strum these notes) 
E|-----|       |-----| 
B|-----|       |--6--| 
G|--8--|       |--8--| 
D|--8--|       |--8--| 
A|--6--|       |-----| 
E|-----|       |-----| 

VERSE 

INTRO 

VERSE 

Pre-Chorus 

Electric 1 

E|-9-------9--------------------| 
B|---11------11----9------9-----| 
G|------11------11----11-----11-| 
D|------------------------------| 
A|------------------------------| 
E|------------------------------| 

Chorus 

Synth/Electric 3 

E|---------------------------| 
B|---------------------------| 
G|---------------------------| 
D|-8/16/18\15\11--8/16/18\15-| 
A|---------------------------| 
E|---------------------------| 

Electric 2 
          (strum these notes) 
E|-----|       |-----| 
B|-----|       |--6--| 
G|--8--|       |--8--| 
D|--8--|       |--8--| 
A|--6--|       |-----| 
E|-----|       |-----| 

VERSE 

Pre-Chorus 

Chorus 

SOLO 

Electric 1 

E|--------------------------------------------------| 
B|-16b-1616-14--------------------------------------| 
G|-------------1515-1515151515-13-11-13-11-13-15-11-| 
D|--------------------------------------------------| 
A|--------------------------------------------------| 
E|--------------------------------------------------| 

 ------------------------------------------------| 
 ------------------------------------------------| 
 ------15-13b-------11-10-------13--------15-13b-| 
 ----11-------11-13-------13/15-------11---------| 
 --14------------------------------14------------| 
 ------------------------------------------------| 

 -----------------------------------| 
 --14-16----------------------------| 
 --------15-13-11----11----11/15-13-| 
 -----------------13----13----------| 
 -----------------------------------| 
 -----------------------------------| 

POST 
(no music in the beginning) 

THEN... 

Electric 2 
(listen to song for strum pattern) 
E|-------------------| 
B|-------------------| 
G|-11-8-11-8-4-6-4-6-| 
D|-11-8-11-8-4-6-4-6-| 
A|-9--6-9--6-2-4-2-4-| 
E|-------------------| 

INTRO 

THEN ADD THE Pre-Chorus 

THEN ADD... 

Electric 1 

E|------------------------11/13\11-| 
B|-16b-1616-14------11-14----------| 
G|-------------1515----------------| 
D|---------------------------------| 
A|---------------------------------| 
E|---------------------------------|  
less
plus
Add to Songbook Print Version How to play lesson Submit videolesson
Click the best TAGS for this song:
None of them
Contributor: piethell Correct

If you can not find the chords or tabs you want, look at our partner E-chords. If you are a premium member, you have total access to our video lessons.

If you find a wrong Bad To Me from Imagine Dragons, click the correct button above.

login/signup
my songbooks
my recent views
my submits