S Imagine Dragons

The River tab

Imagine Dragons

Album:The Archive (EP)

Year:2013

tools Ultimate Tabs

Start AutoScroll Font Size Down Font Size Up

Find us on Facebook

chords
tabs
bass
ukulele keyboards
drums
flute
harmonica
guitar pro
video
Ultimate-Tabs

The River

INTRO  

Electric 1 
(picked) 
E|-13-| 
B|-14-| (throw in a 16 a couple of times on the high E like in the song) 
G|-15-| 
D|----| 
A|----| 
E|----| 

Electric 2 

E|---------| 
B|---------| 
G|-6-5-3-5-| 
D|-6-5-3-5-| 
A|-4-3-1-3-| 
E|---------| 


VERSE 

Electric 1 
(picked) 
E|----------| 
B|-14-13-11-| 
G|----------| 
D|----------| 
A|----------| 
E|----------| 

Electric 2 

E|---------| 
B|---------| 
G|-6-5-3-5-| 
D|-6-5-3-5-| 
A|-4-3-1-3-| 
E|---------| 

Chorus 

Electric 1 
(picked) 
E|-13-| 
B|-14-| (throw in a 16 a couple of times on the high E like in the song) 
G|-15-| 
D|----| 
A|----| 
E|----| 

Electric 2 

E|---------| 
B|---------| 
G|-6-5-3-5-| 
D|-6-5-3-5-| 
A|-4-3-1-3-| 
E|---------| 

POST  

Electric 1 

E|------------------------------| 
B|-14---------------------------| 
G|----10h11h11h11h11-10-8-6-----| 
D|--------------------------8-6-| 
A|------------------------------| 
E|------------------------------| 

VERSE 

Electric 1 

E|------------------| 
B|------------------| 
G|------------------| 
D|-6-8-6-1-8-6-10-8-| 
A|------------------| 
E|------------------| 

Electric 2 

E|---------| 
B|---------| 
G|-6-5-3-5-| 
D|-6-5-3-5-| 
A|-4-3-1-3-| 
E|---------| 

Chorus 

BRIDGE 

Electric 1 
                       (end) 
E|--------------------------| 
B|--------------------------| 
G|-----6--------------------| 
D|-3-4---4-3--4-3-----------| 
A|----------------6-4--6---6| 
E|-----------------------8--| 

SYNTH 
(This part may be a little sketchy)                (repeatedly)                                  
E|-------------  -----------------------------    --------------| 
B|-16----14----  --16-------14----------------    --------------| 
G|----15----13-  -----15-15----13------------- x2 --13----13----| 
D|-------------  -----------------16-15-13-11-    -----13----13-| 
A|-------------  -----------------------------    --------------| 
E|-------------  -----------------------------    --------------| 

Chorus  
less
plus
Add to Songbook Print Version How to play lesson Submit videolesson
Click the best TAGS for this song:
None of them
Contributor: cheexxxz Correct

If you can not find the chords or tabs you want, look at our partner E-chords. If you are a premium member, you have total access to our video lessons.

If you find a wrong Bad To Me from Imagine Dragons, click the correct button above.

login/signup
my songbooks
my recent views
my submits