tools Ultimate Tabs

Start AutoScroll Font Size Down Font Size Up

Find us on Facebook

chords tabs
bass
ukulele keyboards
drums
flute
harmonica
guitar pro
video
Ultimate-Tabs

Tokyo

Alright, another great Imagine Dragons song. The fills here get pretty damn tricky, 
gonna have to listen and feel it out. You can of course just play the half notes at every 
two (+)beats if you prefer and it will sound fine.

Verse:
   +   +   +   +    +   +   +   +    +   +   +   +    +   +   +   +
G-|----------------|----------------|----------------|----------------|
D-|----------------|----------------|----------------|----------------| X2
A-|----------------|----------------|----------------|----------------|
E-|1~~~~~~~~~~~~~~~|5~~~~~~~~~~~~~~~|8~~~~~~~~~~~~~~~|1~~~~~~~~~~~----|

   +   +   +   +    +   +   +   +    +   +   +   +    +   +   +   +
G-|----------------|----------------|----------------|----------------|
D-|----------------|----------------|----------------|----------------|
A-|----------------|----------------|----------------|----------------|
E-|1~~~~~~~~~~~~~~~|----5~~~~~~~~~~~|8~~~~~~~~~~~~~~~|1~~~~~~~~~~~----|

   +   +   +   +    +   +   +   +    +   +   +   +    +   +   +   +
G-|----------------|----------------|----------------|----------------|
D-|----------------|----------------|----------------|----------------|
A-|----------------|----------------|----------------|----------------|
E-|1~~~~~~~~~~~~~~~|5~~~~~~~~~~~~~~~|8~~~~~~~~~~~~~~~|1~~~~~~~~~~~----|

Pre-chorus:
   +   +   +   +    +   +   +   +
G-|----------------|----------------|
D-|----------------|----------------|
A-|----------------|(slide up to 13)|
E-|1~~~~~~~~~~~~~~~|/13~~~~~~~~~~~~~|

Chorus (You gotta listen and feel part out-- it's a bit funky and quite tricky!):
   +   +   +   +     +   +   +   +    +   +   +   +    +   +   +   +
G-|-----------------|----------------|----------------|----------------|
D-|-----------------|----------------|----------------|----------------|
A-|3~~~~~~~~~x3-3h5-|----------------|----------------|----------------|
E-|-----------------|5~~~~~~~~~~8-8~~|1~~~~~~~~~~~~~~~|1~~~~~~~3~~~~~~~|

   +   +   +   +     +   +   +   +    +   +   +   +    +   +   +   +
G-|-----------------|----------------|----------------|----------------|
D-|-----------------|----------------|----------------|----------------|
A-|-----------------|-----------8-8--|----------x3-3--|----------------|
E-|5~~~~~~~~~x8-8p5-|8~~~~~~~8~----8-|1~~~~~~~~-----3-|1~~~~~~~~~~~~~~~|

Verse

Pre-chorus

Chorus 2:
   +   +   +   +     +   +   +   +    +   +   +   +    +   +   +   +
G-|-----------------|----------------|----------------|----------------|
D-|-----------------|----------------|----------------|----------------|
A-|3~~~~~~~~~x3-3h5-|----------------|----------------|----------------|
E-|-----------------|5~~~~~~~~~~8-8~~|1~~~~~~~~~~~~~~~|1~~~~~~~3~~~~~~~|

   +   +   +   +     +   +   +   +    +   +   +   +    +   +   +   +
G-|----------------|----------------|----------------|----------------|
D-|----------------|----------------|----------------|----------------|
A-|----------x7-7--|--------10~~8-x7|----------x3-3--|----------------|
E-|5~~~~~~~~~----5-|8~~~~~~~--------|1~~~~~~~~-----3-|1~~~~~~~~~~~~~~~|

Solo:
   +   +   +   +    +   +   +   +    +   +   +   +     +   +   +   +
G-|----------------|----------------|-----------------|----------------|
D-|----------x2-2--|----------------|-----------------|----------------|
A-|3~~~~~~~~~----3-|0~~~1~~~3~~~0~~~|-------------x1h3|----------------|
E-|----------------|----------------|1~~~~~~~~~~~~----|1~~~~~~~3~~~~~~~|

   +   +   +   +     +   +   +   +    +   +   +   +    +   +   +   +
G-|-----------------|----------------|----------------|----------------|
D-|-----------------|----------------|----------------|----------------|
A-|-----------------|-----------7-7--|8~~~~~~~~~~~~---|8~~~~~~~--------|
E-|5~~~~~~~5~~~~~x5-|8~~~~~~~8~~---8-|-------------x8-|--------1~~~~x1-|

Bridge ("Hey!!!...."):
   +   +   +   +    +   +   +   +    +   +   +   +    +   +   +   +
G-|----------------|----------------|----------------|----------------|
D-|----------------|----------------|----------------|----------------| X2
A-|----------------|----------------|8~~~~~~~~~~~~~~~|8~~~~~~~--------|
E-|5~~~~~~~~~~~~x3-|8~~~~~~~8~~85h8-|----------------|----------------|

   "Give that dynamite...."
   +   +   +   +    +   +   +   +
G-|----------------|----------------|
D-|----------------|----------------|
A-|----------------|----------------|
E-|3~~~~~~~~~~~~~~~~~~~~~~~~~~~~~~~~|

Final Chorus:
   +   +   +   +    +   +   +   +    +   +   +   +    +   +   +   +
G-|----------------|----------------|----------------|----------------|
D-|------------2---|----------------|----------------|----------------|
A-|3~~~~~~~~~~3--3~|----------------|----------------|---3------------|
E-|----------------|5~~~~~~~5~~~8~~~|1~~~1~~~1~~~1~~~|1~~-1~~~3~~~3~~~|

   +   +   +   +    +   +   +   +    +   +   +   +    +   +   +   +
G-|----------------|----------------|----------------|----------------|
D-|----------------|----------------|----------------|----------------|
A-|----------------|-----------8----|8~~~8~~~8~~~8~~~|8~~~------------|
E-|5~~~5~~~5~~~7~~~|8~~~8~~~8~~-8~~~|----------------|----1~~~1~~~1~~~|

   +   +   +   +    +   +   +   +    +   +   +   +    +   +   +   +
G-|----------------|----------------|----------------|----------------|
D-|------------2---|----------------|----------------|----------------|
A-|3~~~3~~~3~~3--3~|-----------3-3--|----------------|----------------|
E-|----------------|5~~~5~~~5~~---5~|1~~~1~~~1~~~1~~~|1~~~1~~~3~~~3~~~|

   +   +   +   +    +   +   +   +    +   +   +   +    +   +   +   +
G-|----------------|----------------|----------------|----------------|
D-|----------------|-----------2-2--|----------------|----------------|
A-|-----------0--0~|3~~~3~~~3~3---3~|8~~~8~~~8~~~8~~~|8~~~------------|
E-|5~~~5~~~5~~-1---|----------------|----------------|----1~~~1~~~1~~~|

The last 35 seconds are all fills and improvisation to build up to the end, not worth 
tabbing out. Either repeat the above lines to the end or experiment with your own!
less
plus
Add to Songbook Print Version How to play lesson Submit videolesson
Click the best TAGS for this song:
None of them
Contributor: emilsoci Correct

If you can not find the chords or tabs you want, look at our partner E-chords. If you are a premium member, you have total access to our video lessons.

If you find a wrong Bad To Me from Imagine Dragons, click the correct button above.

login/signup
my songbooks
my recent views
my submits