Imagine Dragons

Working Man chords

Imagine Dragons

Album:Night Visions

Year:2012

tools Ultimate Tabs

Start AutoScroll Font Size Down Font Size Up

Find us on Facebook

chords
tabs
bass
ukulele keyboards
drums
flute
harmonica
guitar pro
video
Ultimate-Tabs

Working Man

        
        

Intro: 

These notes are all quater-triplets 

     C             Cmaj7          C6/A          C    
e|------------8--------------7------------------------------------| 
B|-----------------------------------------10----------------8----| 
G|--------9-------------9-------------9----------------9----------| 
D|---10-----------10-------------10---------------10--------------| 
A|----------------------------------------------------------------| 
E|----------------------------------------------------------------| 

C Shake it, shake it, and we're moving again F6 Been a long time coming for the working man Am So shake it, shake it, and we're moving again G When the money is high, we can start to spend (2x) Verse 1: C Every little bit goes a little of a long way. F Life gets hard and I'm headed for the highway home, home Am Caught up in the middle of a headache and a heartbreak G Just when I thought I was clear of the mistakes, No, no oh oh C So tell me, tell me, tell me, what am I to do F I think that this life is darker than the view Am So help me, help me, help me, be a little more like you G When everything is falling, I'm gonna do the things you do C Shake it, shake it, and we're moving again F6 Been a long time coming for the working man Am So shake it, shake it, and we're moving again G When the money is high, we can start to spend (2x) Verse 2: C Everything is serious and everything is fatal, hat's what they tell you F And that's how they make you know, know Am I'm tired of the books and I'm tired of the tables, everything is made with the same old labels G No, no oh oh C So tell me, tell me, tell me, what am I to do F I think that this life is darker than the view Am So help me, help me, help me, be a little more like you G When everything is falling, I'm gonna do the things you do C Shake it, shake it, and we're moving again F6 Been a long time coming for the working man Am So shake it, shake it, and we're moving again G When the money is high, we can start to spend, shake it
Solo: 
e|-5b6r5---------5b6r5---------5b6r5------------5b8 (do slide on last, unless you have a 0,09 string 
B|--------5b6r5---------5b6r5----------5b6r5--------------------------------------| 
G|--------------------------------------------------------------------------------| 
D|--------------------------------------------------------------------------------| 
A|--------------------------------------------------------------------------------| 
E|--------------------------------------------------------------------------------| 

C Shake it, shake it, and we're moving again F6 Been a long time coming for the working man Am So shake it, shake it, and we're moving again G When the money is high, we can start to spend, shake it (2x)
less
plus
Add to Songbook Print Version How to play lesson Submit videolesson
Click the best TAGS for this song:
None of them
Contributor: dani0110 Correct

If you can not find the chords or tabs you want, look at our partner E-chords. If you are a premium member, you have total access to our video lessons.

If you find a wrong Bad To Me from Imagine Dragons, click the correct button above.

login/signup
my songbooks
my recent views
my submits