Incubus

Pardon Me Acoustic (ver. 2) tab

Incubus

tools Ultimate Tabs

Start AutoScroll Font Size Down Font Size Up

Find us on Facebook

chords
tabs
bass
ukulele
keyboards
drums
flute
harmonica
guitar pro
video
Ultimate-Tabs

Pardon Me Acoustic (ver. 2)

-----------------|-----------------|-----------------|---------0---0-0-|------ 
---------0-------|---------0-------|---------0-------|---------0---0-0-|------ 
-----4-----4-----|-----4-----4-----|-----4-----4-----|-----4---4---4-4-|------ 
---2---2-----2---|-------2-----2-2-|---2---2-----2---|-------2-2---2-2-|---2-- 
-4-------------4-|---4-------------|-4-------------4-|---4-----0---0-0-|-4---- 
-----------------|-5---------------|-----------------|-5---------------|------ 
 Intro:                                                                        
 
-------------|-----------------|-----------------|---------0---0-0-|---------- 
-----0-------|---------0-------|---------0-------|---------0---0-0-|---------- 
-4-----4-----|-----4-----4-----|-----4-----4-----|-----4---4---4-4-|-6---6-6-- 
---2-----2---|-------2-----2-2-|---2---2-----2---|-------2-2---2-2-|-6---6-6-- 
-----------4-|---4-------------|-4-------------4-|---4-----0---0-0-|-4---4-4-- 
-------------|-5---------------|-----------------|-5---------------|---------- 
                                                                               
 
---------|---------0---0-0-|-----------------|-----------------|-------------- 
---------|---------0---0-0-|-----------------|-----------------|-------------- 
-6---6-6-|---2-2-2-2---2-2-|-6---6-6-6---6-6-|---2-2-2---------|-6---6-6-6---- 
-6---6-6-|---2-2-2-2---2-2-|-6---6-6-6---6-6-|---2-2-2-2---2-2-|-6---6-6-6---- 
-4---4-4-|---0-0-0-0---0-0-|-4---4-4-4---4-4-|---0-0-0-2---2-2-|-4---4-4-4---- 
---------|-----------------|-----------------|---------0---0-0-|-------------- 
                                                                               
 
-----|---------0---0-0-|-----------------|-----------------|------------------ 
-----|---------0---0-0-|-----------------|-----------------|-------7---------- 
-6-6-|---2-2-2-2---2-2-|-6---6-6-6---6-6-|-9-9-------------|-------4---------- 
-6-6-|---2-2-2-2---2-2-|-6---6-6-6---6-6-|-9-9---9---9-9---|-6-----------6---- 
-4-4-|---0-0-0-0---0-0-|-4---4-4-4---4-4-|-7-7---9---7-7---|------------------ 
-----|-----------------|-----------------|-------7---5-5---|------------------ 
                                                             Verse 1:          
 
-|-----------------|-----------------|-----------------|-----------------|---- 
-|-------7---7-7---|-----------------|-----------------|-----------------|---- 
-|-------4---4-4---|-------6-------6-|-------6---6-----|-------8---8-8---|---- 
-|-----------6-6---|-------5-------5-|-------5---5-----|-------6---6-6---|---- 
-|-7-------------7-|-6---------6-6---|-6-----------6---|-4-----4---4-4---|---- 
-|-----------------|-----------------|---------------6-|---------------4-|-7-- 
                                                                               
 
---------------|-------0-------0-|-------0---0-0---|-----------------|-------- 
---------------|-------0-------0-|-------0---0-0---|-----4-5---5-5---|-------- 
-----8---8-8---|-------4-------4-|-------4---4-4---|-------4---4-4---|-------- 
-----8---8-8---|-------5-------5-|---------------0-|---6---6---6-6---|-------- 
-----9---9-9---|-5-----5-------5-|-5---------------|-4-----4---4-4-0-|-------- 
-------------7-|-----------------|-----------------|-----------------|-4------ 
                                                                               
 
-4---4-4---|-----------------|-----------------|-----------------|-------0---- 
-4---4-4---|-------9---------|-------9---------|-------7---7-----|-------0---- 
-4---4-4-0-|-------8---8---8-|-------8---8-----|-------8---8-----|-----4-4---- 
-6---6-6---|-------9---9---9-|-------9---9-----|-------8---8-----|---4---4---- 
-6---6-6---|-7-----------7---|-7-----------7---|-6-----------6\--|-2---------- 
-4---4-4---|-----------------|---------------7-|-----------------|------------ 
                                                                               
 
-------|-0-----------0---|-0---0---0-------|-----------------|---------------- 
-0-0-0-|-0-----------0---|-0---0---0-------|-----------------|-----------0---- 
-4-4-4-|-2---2-2-2-2-2-2-|-2-2-2-2-2-----6-|---6-6---6---6-6-|---4-4-4-x-2-2-- 
-4-4-4-|-2---2-2-2-2-2-2-|-2-2-2-2-2/4-6-6-|---6-6---6---6-6-|---4-4-4-x-2-2-- 
-------|-0---0-0-0-0-0-0-|-0-0-0-0-0-----4-|---4-4---4---4-4-|---2-2-2-x-0-0-- 
-------|-----------------|-----------------|-----------------|---------------- 
                                          Chorus:                              
 
-0-|-----------------|-----------------|-----------------|-----0-----------|-- 
-0-|-----------------|-----------------|-----------------|-----0-----------|-- 
-2-|---2-2---2-------|---------------6-|---6-6---6---6-6-|---2-2-----4-4-4-|-- 
-2-|---2-2---2-----4-|-2-2-2-4-2-2-2-6-|---6-6---6---6-6-|---2-2-----4-4-4-|-- 
-0-|---0-0---0-----4-|-2-2-2-4-2-2-2-4-|---4-4---4---4-4-|---0-0-----2-2-2-|-- 
---|---------------2-|-0-0-0-2-0-0-0---|-----------------|-----------------|-- 
                                 (2x)                                          
 
----------------|-0-------0-------|-----------------|-----0-----------|------- 
----------------|-0-------0-------|-----------------|-----0-----------|------- 
--4-4---4---4-4-|-4---4-4-4-4-4-6-|---6-6---6-6-6-6-|---2-2-----4-4-4-|---4-4- 
--4-4---4---4-4-|-4---4-4-4-4-4-6-|---6-6---6-6-6-6-|---2-2-----4-4-4-|---4-4- 
--2-2---2---2-2-|-2---2-2-2-2-2-4-|---4-4---4-4-4-4-|---0-0-----2-2-2-|---2-2- 
----------------|-----------------|-----------------|-----------------|------- 
                                                                               
 
------------|-----------------|-4-4-t---t---t-44-|-0-0-t---t---t-00-|-4-4-t--- 
------------|-----------------|-4-4-t---t---t-44-|-0-0-t---t---t-00-|-4-4-t--- 
----4-4-4-4-|-----------------|-4-4-t---t---t-44-|-1-1-t---t---t-11-|-4-4-t--- 
----4-4-4-4-|-4-2-2-2-4-2-2-2-|-6-6-t---t---t-66-|-2-2-t---t---t-22-|-6-6-t--- 
----2-2-2-2-|-4-2-2-2-4-2-2-2-|-6-6-t---t---t-66-|-2-2-t---t---t-22-|-6-6-t--- 
------------|-2-0-0-0-2-0-0-0-|-4-4-t---t---t-44-|-0-0-t---t---t-00-|-4-4-t--- 
                                Intro to verse 2:                              
 
--t---t-44-|-0-0-t---t---t-|-------------------------------------------------- 
--t---t-44-|-0-0-t---t---t-|-------------------------------------------------- 
--t---t-44-|-1-1-t---t---t-|-------------------------------------------------- 
--t---t-66-|-2-2-t---t---t-|-------------------------------------------------- 
--t---t-66-|-2-2-t---t---t-|-------------------------------------------------- 
--t---t-44-|-0-0-t---t---t-|-------------------------------------------------- 
                                                                               
 
-----------------|-----------------|-----------------|-----------------|------ 
-------7---------|-------7---7-7---|-----------------|-----------------|------ 
-------4---------|-------4---4-4---|-------6-------6-|-------6---6-----|------ 
-6-----------6---|-----------6-6---|-------5-------5-|-------5---5-----|------ 
-----------------|-7-------------7-|-6---------6-6---|-6-----------6---|-4---- 
-----------------|-----------------|-----------------|---------------6-|------ 
 Verse 2                                                                       
 
-------------|-----------------|-------0-------0-|-------0---0-0---|---------- 
-------------|-------4---4-----|-------0-------0-|-------0---0-0---|---------- 
---8---8-8---|-------3---3-3---|-------4-------4-|-------4---4-4---|---------- 
---6---6-6---|-------4---4-4---|-------5-------5-|---------------0-|---------- 
---4---4-4---|-2-------------2-|-5-----5-------5-|-5---------------|---------- 
-----------4-|-----------------|-----------------|-----------------|---------- 
                                                                               
 
-----------------|-------4---4-4---|-----------------|-----------------|------ 
-----4-5---5-5---|-------4---4-4---|-------9---------|-------9---------|------ 
-------4---4-4---|-------4---4-4-0-|-------8---8---8-|-------8---8-----|------ 
---6---6---6-6---|-------6---6-6---|-------9---9---9-|-------9---9-----|------ 
-4-----4---4-4-0-|-------6---6-6---|-7-----------7---|-7-----------7---|-6---- 
-----------------|-4-----4---4-4---|-----------------|---------------7-|------ 
                                                                               
 
-------------|-------0---------|-0-----------0---|-0---0---0-------|---------- 
---7---7-----|-------0---0-0-0-|-0-----------0---|-0---0---0-------|---------- 
---8---8-----|-----4-4---4-4-4-|-2---2-2-2-2-2-2-|-2-2-2-2-2-----6-|---6-6---- 
---8---8-----|---4---4---4-4-4-|-2---2-2-2-2-2-2-|-2-2-2-2-2/4-6-6-|---6-6---- 
---------6\--|-2---------------|-0---0-0-0-0-0-0-|-0-0-0-0-0-----4-|---4-4---- 
-------------|-----------------|-----------------|-----------------|---------- 
                                                                     Chorus:   
 
---------|---------------0-|-----------------|-----------------|-------------- 
---------|-----------0---0-|-----------------|-----------------|-------------- 
-6---6-6-|---4-4-4-x-2-2-2-|---2-2---2-------|---------------6-|---6-6---6---- 
-6---6-6-|---4-4-4-x-2-2-2-|---2-2---2-----4-|-2-2-2-4-2-2-2-6-|---6-6---6---- 
-4---4-4-|---2-2-2-x-0-0-0-|---0-0---0-----4-|-2-2-2-4-2-2-2-4-|---4-4---4---- 
---------|-----------------|---------------2-|-0-0-0-2-0-0-0---|-------------- 
                                                        (2x)                   
 
-----|-----0-----------|-----------------|-0-------0-------|------------------ 
-----|-----0-----------|-----------------|-0-------0-------|------------------ 
-6-6-|---2-2-----4-4-4-|---4-4---4---4-4-|-4---4-4-4-4-4-6-|---6-6---6-6-6-6-- 
-6-6-|---2-2-----4-4-4-|---4-4---4---4-4-|-4---4-4-4-4-4-6-|---6-6---6-6-6-6-- 
-4-4-|---0-0-----2-2-2-|---2-2---2---2-2-|-2---2-2-2-2-2-4-|---4-4---4-4-4-4-- 
-----|-----------------|-----------------|-----------------|------------------ 
                                                                               
 
-|-----0-----------|-----------------|-0-------0-------|-----------------|---- 
-|-----0-----------|-----------------|-0-------0-------|-----------------|---- 
-|---2-2-----4-4-4-|---4-4---4---4-4-|-4---4-4-4-4-4-6-|---6-6---6-6-6-6-|---- 
-|---2-2-----4-4-4-|---4-4---4---4-4-|-4---4-4-4-4-4-6-|---6-6---6-6-6-6-|---- 
-|---0-0-----2-2-2-|---2-2---2---2-2-|-2---2-2-2-2-2-4-|---4-4---4-4-4-4-|---- 
-|-----------------|-----------------|-----------------|-----------------|---- 
                                                                               
 
---0-----------|-----------------|-------------------|------------------------ 
---0-----------|-----------------|-------------------|------------------------ 
-2-2-----4-4-4-|---4-4---4-4-4-4-|-------------------|------------------------ 
-2-2-----4-4-4-|---4-4---4-4-4-4-|-4-2-2-2-4-2-2-2-2-|------------------------ 
-0-0-----2-2-2-|---2-2---2-2-2-2-|-4-2-2-2-4-2-2-2-2-|------------------------ 
---------------|-----------------|-2-0-0-0-2-0-0-0-0-|------------------------ 
                                                                               
 
-----------------|-----------------|-----------------|---------0---0-0-|------ 
---------0-------|---------0-------|---------0-------|---------0---0-0-|------ 
-----4-----4-----|-----4-----4-----|-----4-----4-----|-----4---4---4-4-|------ 
---2---2-----2---|-------2-----2-2-|---2---2-----2---|-------2-2---2-2-|---2-- 
-4-------------4-|---4-------------|-4-------------4-|---4-----0---0-0-|-4---- 
-----------------|-5---------------|-----------------|-5---------------|------ 
 Interlude:                                                                    
 
-------------|-----------------|-----------------|---------0---0-0-|---------- 
-----0-------|---------0-------|---------0-------|---------0---0-0-|---------- 
-4-----4-----|-----4-----4-----|-----4-----4-----|-----4---4---4-4-|-----4---- 
---2-----2---|-------2-----2-2-|---2---2-----2---|-------2-2---2-2-|---2---2-- 
-----------4-|---4-------------|-4-------------4-|---4-----0---0-0-|-4-------- 
-------------|-5---------------|-----------------|-5---------------|---------- 
                                                                               
 
---------|-----------------|-----------------|---------0---0-0-|---------0---- 
---------|-----------------|---------0-------|---------0---0-0-|---------0---- 
-4---4-4-|-----4---4---4-4-|-----4-----4-----|-----4---4---4-4-|-----4---4---- 
-2---2-2-|-------2-2---2-2-|---2---2-----2---|-------2-2---2-2-|---2---2-2---- 
-4---4-4-|---4-----0---0-0-|-4-------------4-|---4-----0---0-0-|-4-------4---- 
---------|-5---------------|-----------------|-5---------------|-------------- 
                                                                               
 
-0-0-|---------0---0-0-|---------0---0-0-|-----0-------0---|-----0---0-0-0---- 
-0-0-|---------0---0-0-|---------0---0-0-|---0---0---0---0-|---0---0-5-5-5---- 
-4-4-|-----4---4---4-4-|-----4---4---4-4-|-6-------4-------|-6---------6-4-6-- 
-2-2-|-------2-2---2-2-|---2---2-2---2-2-|-----------------|---------------6-- 
-4-4-|---4-----0---0-0-|-4-------4---4-4-|-----------------|---------------4-- 
-----|-5---------------|-----------------|-----------------|------------------ 
                                                                               
 
-|-----------------|---------------0-|---0-0---0-------|-----------------|---- 
-|-----------------|---------------0-|---0-0---0-------|-----------------|---- 
-|---6-6---6-6-6-6-|---4-4-4---2-2-2-|---2-2---2-------|---------------6-|---- 
-|---6-6---6-6-6-6-|---4-4-4---2-2-2-|---2-2---2-----4-|-2-2-2-4-2-2-2-6-|---- 
-|---4-4---4-4-4-4-|---2-2-2---0-0-0-|---0-0---0-----4-|-2-2-2-4-2-2-2-4-|---- 
-|-----------------|-----------------|---------------2-|-0-0-0-2-0-0-0---|---- 
   Chorus:                                                                     
 
---------------|---------------0-|---0-0---0-------|-----------------|-------- 
---------------|-----------0---0-|---0-0---0-------|-----------------|-------- 
-6-6---6---6-6-|---4-4-4---2-2-2-|---2-2---2-------|---------------6-|---6-6-- 
-6-6---6---6-6-|---4-4-4---2-2-2-|---2-2---2-----4-|-2-2-2-4-2-2-2-6-|---6-6-- 
-4-4---4---4-4-|---2-2-2---0-0-0-|---0-0---0-----4-|-2-2-2-4-2-2-2-4-|---4-4-- 
---------------|-----------------|---------------2-|-0-0-0-2-0-0-0---|-------- 
                                                                               
 
---------|-----------------|-----------------|-0-------0-------|-------------- 
---------|---0-------------|-----------------|-0-------0-------|-------------- 
-6-6-6-6-|---2-2-----4-4-4-|---4-4---4-4-4-4-|-4---4-4-4-4-4-6-|---6-6---6-6-- 
-6-6-6-6-|---2-2-----4-4-4-|---4-4---4-4-4-4-|-4---4-4-4-4-4-6-|---6-6---6-6-- 
-4-4-4-4-|---0-0-----2-2-2-|---2-2---2-2-2-2-|-2---2-2-2-2-2-4-|---4-4---4-4-- 
---------|-----------------|-----------------|-----------------|-------------- 
                                                                               
 
-----|-----0-----------|-----------------|-----------------|------------------ 
-----|-----0-----------|-----------------|-----------------|------------------ 
-6-6-|---2-2-----4-4-4-|---4-4---4-4-----|---------------6-|-6---6-6---6-6---- 
-6-6-|---2-2-----4-4-4-|---4-4---4-4---4-|-2-2-2-4-2-2-2-6-|-6---6-6---6-6---- 
-4-4-|---0-0-----2-2-2-|---2-2---2-2---4-|-2-2-2-4-2-2-2-4-|-4---4-4---4-4---- 
-----|-----------------|---------------2-|-0-0-0-2-0-0-0---|------------------ 
                                                                               
 
-|-------0---0-0---|-----------------|-----------------|---------------|------ 
-|-------0---0-0---|-----------------|-----------------|---------------|------ 
-|-2-2-2-2---2-2---|-6---6-6-6---6-6-|---2-2-2---------|-6-6-6-6---6-6-|-9-9-- 
-|-2-2-2-2---2-2---|-6---6-6-6---6-6-|---2-2-2-2---2-2-|-6-6-6-6---6-6-|-9-9-- 
-|-0-0-0-0---0-0---|-4---4-4-4---4-4-|---0-0-0-2---2-2-|-4-4-4-4---4-4-|-7-7-- 
-|-----------------|-----------------|---------0---0-0-|---------------|------ 
                                                                               
 
-------------|-----------------|---------0-------|--------------------------- 
-------------|-----------------|---------0-------|--------------------------- 
-------------|-6---6-6-6---6-6-|---2-2-2-1-------|--------------------------- 
---9---9-9---|-6---6-6-6---6-6-|---2-2-2-2-------|--------------------------- 
---9---7-7---|-4---4-4-4---4-4-|---0-0-0-2-------|--------------------------- 
---7---5-5---|-----------------|---------0-------|--------------------------- 
 


Transcribed by: Robert Karlsson 
Email: [email protected] 
less
plus
Add to Songbook Print Version How to play lesson Submit videolesson
Click the best TAGS for this song:
None of them
Contributor: ellesupa Correct

If you can not find the chords or tabs you want, look at our partner E-chords. If you are a premium member, you have total access to our video lessons.

If you find a wrong Bad To Me from Incubus, click the correct button above.

login/signup
my songbooks
my recent views
my submits