Inverted Horse

Teddy Bear Mattress tab

Inverted Horse

chords
tabs
bass
ukulele
keyboards
drums
flute
harmonica
guitar pro
video
Ultimate-Tabs

Teddy Bear Mattress

-------------------------------------------------------------------------------
                             Teddy Bear Mattress - Inverted Horse
-------------------------------------------------------------------------------
Tabbed by:
E-mail:

Tuning: Standard 

Intro: e

e|---------------------------------------------------------------------------|
B|-1---1-1-1---------------------------1-------------------------------------|
G|-2---2-2-2---1---1-1-1-----------------------------------------------------|
D|-2---2-2-2---2---2-2-2---3---3-3-3---2-------------------------------------|
A|-------------2---2-2-2---3---3-3-3---3-------------------------------------|
E|-------------------------1---1-1-1-----------------------------------------|

Verse
e|---------------------------------------------------------------------------|
B|-1---1-1-1---------------------------1---1-1-1-----------------------------|
G|-2---2-2-2---1---1-1-1-----------------------------------------------------|
D|-2---2-2-2---2---2-2-2---3---3-3-3---2---2-2-2-----------------------------|  x 2
A|-------------2---2-2-2---3---3-3-3---3---3-3-3-----------------------------|
E|-------------------------1---1-1-1-----------------------------------------|

Chorus
e|---------------------------------------------------------------------------|
B|-1---1-1-1---------------------------1---1-1-1-----------------------------|
G|-2---2-2-2---1---1-1-1-----------------------------------------------------|
D|-2---2-2-2---2---2-2-2---3---3-3-3---2---2-2-2-----------------------------|  
A|-------------2---2-2-2---3---3-3-3---3---3-3-3-----------------------------|
E|-------------------------1---1-1-1-----------------------------------------|


e|---------------------------------------------------------------------------|
B|-1---1-1-1---------------------------1-------------------------------------|
G|-2---2-2-2---1---1-1-1-----------------------------------------------------|
D|-2---2-2-2---2---2-2-2---3---3-3-3---2-------------------------------------|
A|-------------2---2-2-2---3---3-3-3---3-------------------------------------|
E|-------------------------1---1-1-1-----------------------------------------|

play solo here

Bridge
e|---------------------------------------------------------------------------|
B|-1---1-1-1---------------------------1---1-1-1-----------------------------|
G|-2---2-2-2---1---1-1-1-----------------------------------------------------|
D|-2---2-2-2---2---2-2-2---3---3-3-3---2---2-2-2-----------------------------|  
A|-------------2---2-2-2---3---3-3-3---3---3-3-3-----------------------------|
E|-------------------------1---1-1-1-----------------------------------------|

e|---------------------------------------------------------------------------|
B|-1---1-1-1---------------------------1-1-1---------------------------------|
G|-2---2-2-2---1---1-1-1-----------------------------------------------------|
D|-2---2-2-2---2---2-2-2---3---3-3-3---2-2-2---------------------------------|  
A|-------------2---2-2-2---3---3-3-3---3-3-3---------------------------------|
E|-------------------------1---1-1-1-----------------------------------------|

Bridge 2 (same as chorus)
e|---------------------------------------------------------------------------|
B|-1---1-1-1---------------------------1---1-1-1-----------------------------|
G|-2---2-2-2---1---1-1-1-----------------------------------------------------|
D|-2---2-2-2---2---2-2-2---3---3-3-3---2---2-2-2-----------------------------|  
A|-------------2---2-2-2---3---3-3-3---3---3-3-3-----------------------------|
E|-------------------------1---1-1-1-----------------------------------------|


e|-----------------------------------------x-x-x-----------------------------|
B|-1---1-1-1---------------------------1---x-x-x-----------------------------|
G|-2---2-2-2---1---1-1-1-------------------x-x-x-----------------------------|
D|-2---2-2-2---2---2-2-2---3---3-3-3---2---x-x-x-----------------------------|
A|-------------2---2-2-2---3---3-3-3---3---x-x-x-----------------------------|
E|-------------------------1---1-1-1-------x-x-x-----------------------------|

Ending
e|---------------------------------------------------------------------------|
B|-1---1-1-1---------------------------1---1-1-1-----------------------------|
G|-2---2-2-2---1---1-1-1-----------------------------------------------------|    x 3
D|-2---2-2-2---2---2-2-2---3---3-3-3---2---2-2-2-----------------------------|  
A|-------------2---2-2-2---3---3-3-3---3---3-3-3-----------------------------|
E|-------------------------1---1-1-1-----------------------------------------|


e|---------------------------------------------------------------------------|
B|-1---1-1-1---------------------------1-------------------------------------|
G|-2---2-2-2---1---1-1-1------------------ let it ring-----------------------|
D|-2---2-2-2---2---2-2-2---3---3-3-3---2-------------------------------------|
A|-------------2---2-2-2---3---3-3-3---3-------------------------------------|
E|-------------------------1---1-1-1-----------------------------------------|



 Lyrics 

this is a song about my teddy bear mattress

teddy bear mattress, it's so comfortable
teddy bear mattress, its foldable

teddy bear mattress, teddy bear mattress
I want to sleep on, on on my teddy bear mattress

teddy bear mattress, its cozy and soft
teddy bear mattress, makes me feel so aloft

teddy bear mattress, teddy bear mattress
I want to sleep on, on on,my teddy bear mattress

teh oh teh oh teh oh oh oh oh no no no owww

No! u can't have my teddy bear mattress
No! the teddy bear mattress is mine
Give it back! x 4
Cus its mine....

teddy bear mattress, teddy bear mattress (teddy, teddy, ted)
teddy bear mattress, take me away.....

teddy bear mattress, teddy bear mattress
teddy bear mattress, teddy bear mattress (oh oh oh oww oh oh oww)
teddy bear mattress, teddy bear mattress
I want to sleep on my teddy bear mattress. 


************************************

| /   slide up
| \   slide down
| h   hammer-on
| p   pull-off
| ~   vibrato
| +   harmonic
| x   Mute note
| b   Bend
| pb  Pre-bend
| br  Bend release
| pbr Pre-bend release
| brb Bend release bend

************************************
less
plus
Add to Songbook Print Version How to play lesson Submit videolesson
Click the best TAGS for this song:
None of them
Contributor: simomfor Correct

If you can not find the chords or tabs you want, look at our partner E-chords. If you are a premium member, you have total access to our video lessons.

If you find a wrong Bad To Me from Inverted Horse, click the correct button above.

login/signup
my songbooks
my recent views
my submits