tools Ultimate Tabs

Start AutoScroll Font Size Down Font Size Up

Find us on Facebook

chords
tabs
bass
ukulele
keyboards
drums
flute
harmonica
guitar pro video
Ultimate-Tabs

Futureal

Futureal Iron Maiden mtuo loka essa tab de bass.                                         
Riff 1: 
|------------------------------------------------------------------------ 
|*----------------------------------------------------------------------- 
|*-7-7-7-7-7-7-7-3-3-3-3-3-3-3-5-5-5-5-5-5-5-5-5-5-5-5-5-5-5-7-7-7-7-7-7- 
|------------------------------------------------------------------------ 
 
----------------------------------------------| 
---------------------------------------------*| 
-7-7-3-3-3-3-3-3-3-----------------------5-5-*| 
-------------------5-5-5-5-5-5-5-5-5-5-5------| 
 
Riff 2: 
 
|------------------------------------------------------------------------ 
|*----------------------------------------------------------------------- 
|*-7-7-7-7-7-7-7-7-7-7-7-7-7-7-7-7-7-7-7-7-7-7-7-7-7-3-3-3-3-3-3-3-5-5-5- 
|------------------------------------------------------------------------ 
 
----------------------------------------| 
---------------------------------------*| 
-5-5-5-5-7-7-7-7-7-7-7-7-7-7-7-7-7-7-7-*| 
----------------------------------------| 
 
Riff 3: 
 
|-------------------------------| 
|*-----------------------------*| 
|*-3-3-3-3-3-3-3-5-5-5-5-5-5-5-*| 
|-------------------------------| 
 
Riff 4 (Chorus) 
 
|----------------------------------------------------------------| 
|*---------------------------------7----------------------------*| 
|*-7-7-9-10------7------------9-10----7-7-9-10------7-----------*| 
|-----------8-10---10-7-10-7-------------------8-10---10-7-10-7--| 
 
Riff 5: 
 
|---------------------------------------------------------------- 
|*--------------------------------------------------------------- 
|*-7-7-7-7-7-7-7-7-7-7-7-7-7-7-3---7-7-7-7-7-7-7-7-7-7-7-7-7-7-7- 
|--------------------------------3------------------------------- 
 
----------------------------------------------------------------- 
----------------------------------------------------------------- 
-7-7-7-7-7-7-3---5---5-5-5-5-5-5-5-5-5-5-5-5-5-5-3---7-7-7-7-7-7- 
---------------3---5-------------------------------3------------- 
 
------------------| 
-----------------*| 
-7-7-7-7-7-7-7-7-*| 
------------------| 
 
Riff 6: 
 
|-------------------------------------------------| 
|*-----------------10-7-7-----------------10-7-7-*| 
|*-7-7-7-7-7-7-7-7-10-7-7-3-3-3-3-3-3-3-3-10-7-7-*| 
|-------------------------------------------------| 
 
Song Structure: 
 
Riff 1 x2 
Riff 2 x2 
Riff 3 x2 
Riff 4 x2 
Riff 2 x2 
Riff 3 x2 
Riff 4 x2 
Riff 5 x2 
Riff 6 x4 
Riff 1 x1 
Riff 3 x2 
Riff 4 X4 
 
 
less
plus
Add to Songbook Print Version How to play lesson Submit videolesson
Click the best TAGS for this song:
None of them
Contributor: homeseda Correct

If you can not find the chords or tabs you want, look at our partner E-chords. If you are a premium member, you have total access to our video lessons.

If you find a wrong Bad To Me from Iron Maiden, click the correct button above.

login/signup
my songbooks
my recent views
my submits