S Iron Maiden

No More Lies bass

Iron Maiden

tools Ultimate Tabs

Start AutoScroll Font Size Down Font Size Up

Find us on Facebook

chords tabs
bass
ukulele keyboards
drums
flute
harmonica
guitar pro video
Ultimate-Tabs

No More Lies

Intro (2 vezes) 
G|-----9--7--9---7--9--7---9--7--9---7-9-10--12-10-9--7-9-7--5-5-4-5-4-5-5--5-4--2-2-0-2-0-2-2--0-7| 
D|-7-----------------------------------------------------------------------------------------------| 
A|-------------------------------------------------------------------------------------------------| 
E|-------------------------------------------------------------------------------------------------| 
 
(4 vezes) 
G|-9---9---9---9-----7---9---9---9---9---5---5---5---5-------10---9---7---9------------------------| 
D|---7---7---7---7---7-----7---7---7---7---5---5---5---5---7----7---7---7--------------------------| 
A|-------------------------------------------------------------------------------------------------| 
E|-------------------------------------------------------------------------------------------------| 
 
Entra o teclado 
G|-9---9---9---9---9---9---9---9----5---5---5---5----7---7---7---7---------------------------------| 
D|---7---7---7---7---7---7---7---7----3---3---3---3----5---5---5-----------------------------------| 
A|-------------------------------------------------------------------------------------------------| 
E|-------------------------------------------------------------------------------------------------| 
 
Entra o Vocal (4 vezes)                              (4 vezes) 
G|------------------------------------------------|------------------------------------------------| 
D|-7-7-7-7-7-7-------------------------5-5-5-5-5-5|-7-7-7-7-7-7-------------------------5-5-5-5-5-5| 
A|------------8-8-8-8-8-8--5-5-5-5-5-5------------|-------------5-5-5-5-5-5-8-8-8-8-8-8------------| 
E|------------------------------------------------|------------------------------------------------| 
 
Refrão (2vezes) 
G|------------------------------------------------------------------------------------------------| 
D|o----------------------------------------------------------------------------------------------o| 
A|o-----------------------------------------------------5-5-5-5-5-5-5-5--------------------------o| 
E|-5-5-5-5-5-5-5-5---1-1-1-1-1-1-1-1---3-3-3-3-3-3-3----------------------------------------------| 
  
Acelerado(6 vezes)                                 (2 vezes) 
G|------------------------------------------------|------------------------------------------------| 
D|-77-77-77-------------------------55-55-55------|-77-77-77-------------------------55-55-55------| 
A|------------88-88-88--55-55-55------------------|-------------55-55-55-88-88-88------------------| 
E|------------------------------------------------|------------------------------------------------| 
 
Refrão (2vezes) 
G|------------------------------------------------------------------------------------------------| 
D|o----------------------------------------------------------------------------------------------o| 
A|o-----------------------------------------------------5-5-5-5-5-5-5-5--------------------------o| 
E|-5-5-5-5-5-5-5-5---1-1-1-1-1-1-1-1---3-3-3-3-3-3-3----------------------------------------------| 
 
Solo (faça o solo inteiro isso) 
G|-----------------------------| 
D|-77-77-77-77--------55-55----| 
A|--------------88-88----------| 
E|-----------------------------| 
 
 (2 vezes) 
G|------------------------------------| 
D|-77-77-77-------------------55-55-55| 
A|----------55-55-55-88-88-88---------| 
E|------------------------------------| 
 
 
 
 
Refrão (3vezes) 
G|------------------------------------------------------------------------------------------------| 
D|o----------------------------------------------------------------------------------------------o| 
A|o-----------------------------------------------------5-5-5-5-5-5-5-5--------------------------o| 
E|-5-5-5-5-5-5-5-5---1-1-1-1-1-1-1-1---3-3-3-3-3-3-3----------------------------------------------| 
 
(2 vezes) 
G|-----9--7--9---7--9--7---9--7--9---7-9-10--12-10-9--7-9-7--5-5-4-5-4-5-5--5-4--2-2-0-2-0-2-2--0-7| 
D|-7-----------------------------------------------------------------------------------------------| 
A|-------------------------------------------------------------------------------------------------| 
E|-------------------------------------------------------------------------------------------------| 
 
(4 vezes) 
G|-9---9---9---9-----7---9---9---9---9---5---5---5---5-------10---9---7---9------------------------| 
D|---7---7---7---7---7-----7---7---7---7---5---5---5---5---7----7---7---7--------------------------| 
A|-------------------------------------------------------------------------------------------------| 
E|-------------------------------------------------------------------------------------------------| 
 
No more lies na marca Iron betobassmtuloko! 
 
 
less
plus
Add to Songbook Print Version How to play lesson Submit videolesson
Click the best TAGS for this song:
None of them
Contributor: Arqumowp Correct

If you can not find the chords or tabs you want, look at our partner E-chords. If you are a premium member, you have total access to our video lessons.

If you find a wrong Bad To Me from Iron Maiden, click the correct button above.

login/signup
my songbooks
my recent views
my submits