tools Ultimate Tabs

Start AutoScroll Font Size Down Font Size Up

Find us on Facebook

chords
tabs
bass
ukulele keyboards
drums
flute
harmonica
guitar pro
video
Ultimate-Tabs

Bed

 Artist: J. Holiday  www.jholiday.com
Song: Bed
                  all i have for now, but brb!
capo 1st fret
Intro
e/------------------5-------------5-----------------------------------------/
B/---3---------3---------5------------3--------3------3-------3--3----------/
G/---4---------4---------6--7---------2--------2------2-------2--3----------/
D/---4---------4---------7------------2--------2------2-------2--3----------/
A/------------------------------------2----2-------2-----2------------------/
E/---3----3------3-------5----5------------------------------------3-3------/

 ---------------------------------------------------------------------------/
 ---3---------3----------5--------5---------------3-------3--------3--------/
 ---4---------4----------7--------7--6----2-------2-------2--------2--------/
 ---4---------4----------5--------5--5----2-------2-------2--------2--------/
 -----------------------------------------2---2-------2--------2------------/
 ---3----3--------3------5-----5--------------------------------------------/

 Verse 1:
 ---------------------------------------------------------------------------/
 ------3-3-3-3--3-3-3-3------------5-7---3------------3---------------------/
 ---4--------------------7-7-7---7-------2-2----------2-2-2-----------------/
 ----------------------------------------2-----4-2----2------4-4--2-2--4-4--/
 ----------------------------------------2---2------2-----------------------/
 ------3--------3--------5-------5------------------------------------------/
Girl, change into that Victoria Secret thing that I like. Alright
Ok, tonight your having me your way.

 --------------------------------------------2--0---0-|
 --------3-3---------------------------0-3-5------3---|
 --------4-----222-----4-------------2----------------|
 --------4------------7-4-----4-----2-----------------|
 ----------------------------7-5---2---------2--------|
 --2-2---3---3------5------5--------------------------|
                                                                                         
 Perfume, spray it there
Put our love in the air
Now put me right next to you

Lyrics

J. Holiday: speaking
Aye, Aye, Aye, Aye, Aye, Aye, Aye (repeat 8x times)
Put you to the bed, bed, bed
Put you to the bed, bed, bed
Aye,Aye, Aye, Aye

Verse 1:
Girl, change into that Victoria Secret thing that I like
Alright
Ok, tonight your having me your way
Perfume, spray it there
Put our love in the air
Now put me right next to you
Fittin to raise the temp in the room
First rub my back like you do
Right there, uh-uh, right there uh
You touch me like you care
Now Stop
And let me repay you for the week that you've been thru
Working that 9-5 and staying cute, like you do
oh, oh, oh

Pre-Chorus:
I love it (I love it)
You love it (You love it)
Everytime (Everytime)
We touchin (We touchin)
I want it (I want it)
You want it (You want it)
I'll see you (see you)
In the morning (In the morning)

Chorus:
I wanna put my fingers thru your hair
Wrap me up in your legs
And love you till your eyes roll back
I'm tryin to put you to bed, bed, bed
I'mma put you to bed, bed, bed
Then I'ma rock your body
Turn you over
Love is war
I'm your soldier
Touching you like it's our first time
I'mma put you to bed, bed, bed
I'ma put you to bed, bed, bed

Verse 2:
I'm staring at you while your sleep
You replaced it for beauty
Put my face up in your neck and breathe (aww, breathe)
Take you into my senses
Wake up, it's time to finish
Round two, It's round two
Matter of fact it's closer to three
She like, "how long I been sleep?"
Shorty, kisses turn into the sweetest dreams
Like give it to me
And I can feel her tell me
My angel this is wonderful
Thanks, for letting me bless ya
Come down, fly, right, drift back into heaven
Oh, Oh, Oh, Oh

Pre-Chorus:
I love it (I love it)
You love it (You love it)
Everytime (Everytime)
We touchin (We touchin)
I want it (I want it)
You want it (You want it)
I'll see you (see you)
In the morning (In the morning)

Chorus:
I wanna put my fingers thru your hair
Wrap me up in your legs
And love you till your eyes roll back
I'm tryin to put you to bed, bed, bed
I'mma put you to bed, bed, bed
Then I'ma rock your body
Turn you over
Love is war
I'm your soldier
Touching you like it's our first time
I'mma put you to bed, bed, bed
I'ma put you to bed, bed, bed

Bridge:
Watch the sunlight peak over the horizons
Ou-Ou, Ou-Ou, Ou-Ou, Ou-Ou
Sun ain't the only thing that's shining
Ou-Ou, Ou-Ou, Ou-Ou, Ou-Ou
Now, I'mma send you out into the world with my love
Tell everybody aye, aye, aye x10

Chorus:
I wanna put my fingers thru your hair
Wrap me up in your legs
And love you till your eyes roll back
I'm tryin to put you to bed, bed, bed
I'mma put you to bed, bed, bed
Then I'ma rock your body
Turn you over
Love is war
I'm your soldier
Touching you like it's our first time
I'mma put you to bed, bed, bed
I'ma put you to bed, bed, bed
less
plus
Add to Songbook Print Version How to play lesson Submit videolesson
Click the best TAGS for this song:
None of them
Contributor: davifres Correct

If you can not find the chords or tabs you want, look at our partner E-chords. If you are a premium member, you have total access to our video lessons.

If you find a wrong Bad To Me from J. Holiday, click the correct button above.

login/signup
my songbooks
my recent views
my submits