J-rocks

Yang Kedua chords

J-rocks

tools Ultimate Tabs

Start AutoScroll Font Size Down Font Size Up

Find us on Facebook

chords
tabs
bass
ukulele keyboards
drums
flute
harmonica
guitar pro
video
Ultimate-Tabs

Yang Kedua

Fig1 
e|---------------------------------5-----------------------------------------------------| 
B|------3h5-3---------2h3-3h5-/7-----7---7-7-7-7p5-5-5-5p3-3-3-3---------5---------------| 
G|--2h4---------2-2h4----------------------------------------------4-2h4-----------------| 
D|---------------------------------------------------------------------------------------| 
A|---------------------------------------------------------------------------------------| 
E|---------------------------------------------------------------------------------------| 

Fig2 
e|----------------------------------------------------| 
B|--------7p5-7---------7p5-7---------7p5-7-----------| 
G|----------------------------------------------------| 
D|--7-x-7---------6-x-6---------4-x-4----------2-x-2--| 
A|--5-x-5---------4-x-4---------2-x-2----------0-x-0--| 
E|----------------------------------------------------| 

Fig3 
e|--------5---------5---------5---------5--| 
B|----7---------5---------3---------3------| 
G|------7---------6---------4---------4----| 
D|-----------------------------------------| 
A|--5---------4---------2---------0--------| 
E|-----------------------------------------| 

Fig4 
e|-------------------------------------5---------------5---------------7---------------7------| 
B|----3-5-5/7-7\3-3-----3-5-5/7-7--5-7---7-5--7-7--5-7---7-5--8-8--7-8---8-7--8-8--7-8---8-7--| 
G|--2-----------------2-----------------------------------------------------------------------| 
D|--------------------------------------------------------------------------------------------| 
A|--------------------------------------------------------------------------------------------| 
E|--------------------------------------------------------------------------------------------| 

e|--------------9-----------9------9-----10\--| 
B|--10-10--8-10---10-8--10-----10-----10------| 
G|--------------------------------------------| 
D|--------------------------------------------| 
A|--------------------------------------------| 
E|--------------------------------------------| 
(intro) Fig1 D F#m Em A Fig2 D C#m Bm A D C#m apakah kau inginkanku Bm A walau kau akan menjadi yang kedua D C#m masihkah kau menungguku Bm A meski kau tahu ku masih bersamanya D C#m Bm A Fig3 D C#m apakah kau inginkanku Bm A walau kau akan menjadi yang kedua D C#m masihkah kau menungguku Bm A D meski kau tahu ku masih bersamanya G F#m dan bila kau masih inginku G F#m bila kau tetap di sampingku Em A terima kasih atas waktumu D F#m bukan salahku menduakan dirimu Em A karena dia lebih dulu hadir di hatiku D F#m ku akan datang kepada dirimu Em A tapi ku masih tetap kan bersamanya G F#m G F#m D C#m apakah kau inginkanku Bm A walau kau akan menjadi yang kedua D C#m masihkah kau menungguku Bm A meski kau tahu ku masih bersamanya G F#m dan bila kau masih inginku G F#m bila kau tetap di sampingku Em A terima kasih atas waktumu D F#m bukan salahku menduakan dirimu Em A karena dia lebih dulu hadir di hatiku D F#m ku akan datang kepada dirimu Em A tapi ku masih tetap kan bersamanya Fig4 D F#m Em A Fig2 D C#m Bm A D C#m F#m G D F#m bukan salahku menduakan dirimu Em A karena dia lebih dulu hadir di hatiku D F#m ku akan datang kepada dirimu Em A tapi ku masih tetap kan bersamanya D F#m Em A (2x) D C#m D A
less
plus
Add to Songbook Print Version How to play lesson Submit videolesson
Click the best TAGS for this song:
None of them
Contributor: migupapa Correct

If you can not find the chords or tabs you want, look at our partner E-chords. If you are a premium member, you have total access to our video lessons.

If you find a wrong Bad To Me from J-rocks, click the correct button above.

login/signup
my songbooks
my recent views
my submits