Jarabe De Palo

Dos Dias En La Vida tab

Jarabe De Palo

Album:Grandes Exitos

Year:2003

tools Ultimate Tabs

Start AutoScroll Font Size Down Font Size Up

Find us on Facebook

chords
tabs
bass
ukulele
keyboards
drums
flute
harmonica
guitar pro
video
Ultimate-Tabs

Dos Dias En La Vida

Tabber  : David Vega Gonzalez Alias ? El Padrino ? 
 
Preintro : 
guitarra 1 
|-8^p5-|-8^\5/12-12-|---5---|---------|-------------|-----------|------| 
|------|------------|-6---5-|---------|-------------|-----------|-5----| 
|------|------------|-------|-5\4-----|-5\4---------|-5\1-1-----|----2-| 
|------|------------|-------|------3^-|-----2^------|-----------|------| 
|------|------------|-------|---------|-------------|-----------|------| 
|------|------------|-------|---------|-------------|-----------|------| 
 
guitarra 2 
|------|------------|-------|-----18^^|-----------12|-----------|------| 
|------|------------|-------|---------|----12^p10---|-----------|------| 
|------|------------|-------|---------|-------------|-----------|------| 
|------|------------|-------|---------|-------------|-----3\1/4-|------| 
|------|------------|-------|---------|-------------|-----------|------| 
|------|------------|-------|---------|-------------|-----------|------| 
Intro 
F               Am             E7                F 
|--------------|--------------|----------------|---------------|  
|-------1------|-------1------|--------3-------|-------1-------|  
|----------2---|----------2---|-----------1----|---------2-----|  
|-----3--------|-----3--------|-----2----------|----3----------|  
|--------------|--0-----------|----------------|---------------|  
|--1-----------|--------------|--0-------------|-1----------0--|  
 
Gtr 2 
|--------------------------------------------------------------| 
|-----1-1-1----1-3-4p3p1-3-1----1-1----1p0--1p0----------------| 
|---x2-------x2---------------2-----2-----------2-0-2----------| 
|--------------------------------------------------------------| 
|--------------------------------------------------------------| 
|--------------------------------------------------------------| 
 
                    F                       Am                                        
Hay dos d? en la vida, para los que no nac? 
                   E7                       F 
Dos momentos en la vida que no existen para mi 
                    F                        Am 
Ciertas cosas en la vida, no se hicieron para mi 
                   E7                    Am             
Hay dos d? en la vida para los que no nac? 
Estribillo 1 ? 
primer solo: 
|----12-15-15--12---------10h12-------------------| 
|-15---------------15-13-------------13-13--10----| 
|-------------------------------------------------| 
|-------------------------------------------------| 
|-------------------------------------------------| 
|-------------------------------------------------| 
 
|---------------------------------------------------| 
|----10-13-13------10-13-10-------------------------| 
|-12------------12-----------12---------------------| 
|-------------------------------12p10?-12p10--12p10-| 
|---------------------------------------------------| 
|---------------------------------------------------| 
 
                   Am          
El primero de esos d?, fue cuando te conoc?                    Dm7 G                 C E7 
Me atraparon tus mentiras y me enamore de ti 
                  Am 
Del camelo de tus risas, de tus ganas de vivir 
                       Dm7                       E7 
De la crueldad de tus caricias por las que cre?orir 
 
 
Estribillo 2 : 
                   F                      Am                          
Hay dos d? en la vida, para los que no nac?                    
                  E7                        F  
Dos momentos en la vida que no existen para mi 
                    F                        Am 
Ciertas cosas en la vida, no se hicieron para mi 
                  E7                     Am             
Hay dos d? en la vida para los que no nac? 
Segundo solo : 
 
|--7h8?7h8p7--5-------7h8-7h8p7--5-----------------------------------------------| 
|----------------6-------------------5------------5------------------------------| 
|--------------------------------------------5h7-----5h7---5h7p5h7p5---5-5-------| 
|---------------------------------------5h7--------------------------7-----7?5h7-| 
|--------------------------------------------------------------------------------| 
|--------------------------------------------------------------------------------| 
 
|--7h8?7h8p7--5-------7h8-7h8p7--5--------------------------------------------| 
|----------------6-------------------5-------8-10-----8-10-----8-10-----8-10--| 
|-----------------------------------------9b-------9b-------9b-------9b-------| 
|-----------------------------------------------------------------------------| 
|-----------------------------------------------------------------------------| 
|-----------------------------------------------------------------------------| 
 
|------------------------------------| 
|------------------------------------| 
|--7h9p7?-5h7p5----5-----------------| 
|----------------7---7?5h7p5--7?5h7--| 
|------------------------------------| 
|------------------------------------| 
 
                   Am 
El segundo de esos d? fue justo el que te perd?                 Dm7 G                  C E7  
Se fue tu cara bonita, y mis ganas de vivir 
                   Am 
Se acabaron las mentiras y de todo aprend?                       Dm7                    E7  
Que hay dos d? en la vida para los que no nac? 
 
Hay dos d? en la vida......................(se repite) 
 
                    F                          Am 
Me trague todo el veneno, del que llevaban tus besos 
                   E7                        Am 
Me empape del sufrimiento que escondia tu sonrisa 
                      F                         Am 
Descubri que con el tiempo, me perdi todo el respeto 
                   E7                           Am 
Compraste mis sentimientos con tus labios de carmin 
 
 
less
plus
Add to Songbook Print Version How to play lesson Submit videolesson
Click the best TAGS for this song:
None of them
Contributor: mistbeat Correct

If you can not find the chords or tabs you want, look at our partner E-chords. If you are a premium member, you have total access to our video lessons.

If you find a wrong Bad To Me from Jarabe De Palo, click the correct button above.

login/signup
my songbooks
my recent views
my submits