Jarabe De Palo

Vivo En Un Saco tab

Jarabe De Palo

tools Ultimate Tabs

Start AutoScroll Font Size Down Font Size Up

Find us on Facebook

chords
tabs
bass
ukulele
keyboards
drums
flute
harmonica
guitar pro
video
Ultimate-Tabs

Vivo En Un Saco

Tabber  : David Vega Gonzalez alias ? El Padrino ?  
---> [email protected] 
 
INTRO: 
F               C             F             A# 
e||-------1-----|-------0-----|-------1-----|-------1-----| 
B||-------1-----|-------1-----|-------1-----|-------3-----| 
G||-----2---2---|-----0---0---|-----2---2---|-----3---3---| 
D||---3-------3-|---2-------2-|---3-------3-|---3-------3-| 
A||-3-----------|-3-----------|-3-----------|-1-----------| 
E||-------------|-------------|-------------|-------------| 
 
F                C             Dm(FILL 1)   Dm 
e||-------1-----|-------0-----|-------1-----||-1-----1-----1--. 
B||-------1-----|-------1-----|-----3---3---||---3-----3-----3. 
G||-----2---2---|-----0---0---|---2-------2-||-----2-----2----. 
D||---3-------3-|---2-------2-|-0-----------||----------------. 
A||-3-----------|-3-----------|-------------||----------------. 
E||-------------|-------------|-------------||----------------. 
 
Verse 1 :  
         FA             DO             FA          SIb 
Vivo en un saco pegado al suelo de donde veo gente pasando 
         FA             DO               Rem (Fill 2) 
y cuando salgo entonces pienso, mejor me quedo. 
           FA            DO               FA	          SIb 
Vivo en un saco lleno de trastos de donde oigo gente hablando 
         FA             DO               Rem (Fill 3) 
y cuando salgo entonces pienso, mejor me callo. 
 
Estribillo 1 :  
D              F                 C                F                Bb 
e||--------------|-----------------|---------------|-----------------|---| 
B||--------------|-----------------|---------------|-----------------|---| 
G||*-------------|-----------------|---------------|-----------------|---| 
D||*10h12p10-\-7-|----10h12p10-\-7-|-10-10---------|-----------------|---| 
A||--------------|-8-8-------------|------10h12p10-|-8-8--10h12p10-8-|---| 
E||--------------|-----------------|---------------|-----------------|-10| 
|1.VEZ     
 
               F                  C               D 
e|--------------|-----------------|-------|----------------------------| 
B|--------------|-----------------|-------|----------------------------| 
G|--------------|-----------------|-------|----------------------------| 
D|-10h12p10-\-7-|----10h12p10-\-7-|-10-10\|----------------------10/12-| 
A|--------------|-8-8-------------|-------|-----8---8-10/11-10-12------| 
E|--------------|-----------------|-------|-8-10--10-------------------| 
|1.VEZ     
 
C       D                     
e|-------|-------------------------------------|| 
B|-------|-------------------------------------|| 
G|-------|-------------------------12b(14)r\10-|| 
D|-10-10\|-------------------10-12-------------|| 
A|-------|------8-10-8-10-12-------------------|| 
E|-------|-8-10--------------------------------|| X2 
(Fin estribillo 1) 
 
Verse 2 : 
FA             DO              FA               Sib (Fill 4) 
No soy un robot, tengo coraz?Mi reloj son el sol y las olas. 
FA             DO               Rem         (Fill 5) 
No soy un robot enchufado a los tiempos que corren. 
FA              DO                FA                     Sib  (Fill 6) 
No soy un cabr?i un predicador; no juego a farol y si palmo, palmo 
FA                 DO   Rem (Fill 7) 
dicen que estoy acabado; pues podr?ser que s? 
 
ESTRIBILLO 2: 
D              F                 C                F                Bb 
e||--------------|-----------------|---------------|-----------------|---| 
B||--------------|-----------------|---------------|-----------------|---| 
G||*-------------|-----------------|---------------|-----------------|---| 
D||*10h12p10-\-7-|----10h12p10-\-7-|-10-10---------|-----------------|---| 
A||--------------|-8-8-------------|------10h12p10-|-8-8--10h12p10-8-|---| 
E||--------------|-----------------|---------------|-----------------|-10| 
Vivo   en un  saco, pegado   al   suelo, vivo en un saco, lleno de  trastos 
 
                F                  C               D 
e|--------------|-----------------|-------|----------------------------| 
B|--------------|-----------------|-------|----------------------------| 
G|--------------|-----------------|-------|----------------------------| 
D|-10h12p10-\-7-|----10h12p10-\-7-|-10-10\|----------------------10/12-| 
A|--------------|-8-8-------------|-------|-----8---8-10/11-10-12------| 
E|--------------|-----------------|-------|-8-10--10-------------------| 
y    cuando  salgo  en___tonces  pienso   mejor me quedo 
 
D              F                 C                F                Bb 
e||--------------|-----------------|---------------|-----------------|---| 
B||--------------|-----------------|---------------|-----------------|---| 
G||*-------------|-----------------|---------------|-----------------|---| 
D||*10h12p10-\-7-|----10h12p10-\-7-|-10-10---------|-----------------|---| 
A||--------------|-8-8-------------|------10h12p10-|-8-8--10h12p10-8-|---| 
E||--------------|-----------------|---------------|-----------------|-10| 
Vivo  en un  saco, pegado   al   suelo, vivo en un saco, lleno de  trastos 
 
                F                  C               Dm 
e|--------------|-----------------|-------|-----------------------------| 
B|--------------|-----------------|-------|-----------------------------| 
G|--------------|-----------------|-------|-----------------------------| 
D|-10h12p10-\-7-|----10h12p10-\-7-|-10-10\|---------------------10/14-10| 
A|--------------|-8-8-------------|-------|-----8--8-10/11-10-12--------| 
E|--------------|-----------------|-------|-8-10-10---------------------| 
y    cuando  salgo  en___tonces  pienso   mejor me callo 
(Fin estribillo 2) 
 
INTERMEDIO: 
e||-------1-----|-------0-----|-------1-----|-------1-----| 
B||-------1-----|-------1-----|-------1-----|-------3-----| 
G||-----2---2---|-----0---0---|-----2---2---|-----3---3---| 
D||---3-------3-|---2-------2-|---3-------3-|---3-------3-| 
A||-3-----------|-3-----------|-3-----------|-1-----------| 
E||-------------|-------------|-------------|-------------| 
 
(FILL 8) 
e||-------1-----|-------0-----|-------1-----1-----1-----|| 
B||-------1-----|-------1-----|-----3---3-----3-----3---|| 
G||-----2---2---|-----0---0---|---2-------2-----2-----2-|| 
D||---3-------3-|---2-------2-|-0-----------------------|| 
A||-3-----------|-3-----------|-------------------------|| 
E||-------------|-------------|-------------------------|| 
 
Verse 3 : 
FA             DO              FA               Sib  
No soy un robot, tengo coraz?Mi reloj son el sol y las olas. 
FA             DO               Rem         (Fill 9) 
No soy un robot enchufado a los tiempos que corren.  (Heavy) 
FA              DO                FA                     Sib   
No soy un cabr?i un predicador; no juego a farol y si palmo, palmo 
FA                 DO   Rem  
dicen que estoy acabado; pues podr?ser que s? 
 
ESTRIBILLO 3 : igual que el estribillo 2 
(fin estribillo 3) 
 
Verse 4 : 
           FA             DO                FA            SIb 
Vivo en un saco pegado al suelo, vivo en un saco lleno de trastos 
         FA             DO               REm    SIb 
y cuando salgo entonces pienso, mejor me quedo. 
           FA             DO                FA            SIb 
Vivo en un saco pegado al suelo, vivo en un saco lleno de trastos 
         FA             DO               REm 
y cuando salgo entonces pienso, mejor me callo. 
Fin estribillo 
 
Solo :  
FA             DO              FA               Sib  
No soy un robot, tengo coraz?Mi reloj son el sol y las olas. 
FA             DO               Rem         (Fill 10) 
No soy un robot enchufado a los tiempos que corren.   
 
D5...........F5................C5........................F5................. 
e||------------|-----------------|-------------------------|------------| 
B||------------|-----------------|-------------------------|------------| 
G||-16pb(18)sr-|-----------------|----------14tr(12)-12\10/|------------| 
D||------------|-----------------|-------------------------|------------| 
A||------------|-----------------|-------------------------|------------| 
E||------------|-----------------|-------------------------|------------| 
No soy un cabron. Ni un predi__cador        No juego a farol y 
 
A#5...................F5.......................C5....................... 
e|---------------------|-------------------------|----------------------| 
B|---------------------|-------------------------|----------------------| 
G|---------------10-10-|----------------10-12-14-|-14~14~14~14~14~14~14~| 
D|-------(10)/12-------|--------(10)/12----------|----------------------| 
A|---------------------|-------------------------|----------------------| 
E|---------------------|-------------------------|----------------------| 
si palmo, pal____mo.  Dicen que estoy acabado 
 
 
D5                                    F5                 C5 
e|-------------------------------------|------------------|--------------| 
B|-------------------------------------|--------------/18-|-18---17-15-13| 
G|14~14~14~14~14~14~14~14~14~14~14-14~\|-14---------------|--------------| 
D|-------------------------------------|------------------|--------------| 
A|-------------------------------------|------------------|--------------| 
E|-------------------------------------|------------------|--------------| 
pues podria ser que si.    Vivo en un saco, pegado al    suelo, vivo en un 
 
F5             A#5                   F5                 C5 
e|------------|-------------------|------------------|-------------------| 
B|-15------15-|-13----------------|------------------|---------15-15-----| 
G|------------|----14p12----14p12-|-20b(22)-18----22-|-20--14-14----14\12| 
D|------------|----------15-------|------------------|-------------------| 
A|------------|-------------------|------------------|-------------------| 
E|------------|-------------------|------------------|-------------------| 
saco lleno de trastos, y cuando  salgo,  entonces  pienso, mejor me quedo 
 
D5                                              F5              C5 
e|-------------------------------------------|--------------|-----------| 
B|-------------------------------------------|--------------|-----------| 
G|14-14p12----14-14p12----14-14p12----14-----|------14\-----|-/15-------| 
D|---------14----------14----------14--------|--------------|-----------| 
A|-------------------------------------------|--------------|-----------| 
E|-------------------------------------------|--------------|-----------| 
Vivo en un saco, pegado al  suelo, vivo 
 
F5               A#5               F5               C5           D5 
e|----|----------------|----------------|---------------|---------|-----| 
B|----|----------------|----------------|---------------|---------|-----| 
G|--\-|-/14-----14--12-|----------------|-14~14~14~14~14-14~14-12-|14-16| 
D|----|----------------|-15p12h15-15\12-|---------------|---------|-----| 
A|----|----------------|----------------|---------------|---------|-----| 
E|----|----------------|----------------|---------------|---------|-----| 
en un saco,lleno de trastos y cuando salgo,entonces pienso mejor me callo  
 
xxxxxxxxxxxxxxxxxxxxxxxxxxxxxxxxxxxxxxxxxxxxxxxxxxx 
 
FILL 1          FILL 2      FILL 3 FILL 4        FILL 5 
e||-------------|----------|13-13-|------------|----------------------| 
B||-------------|----------|18-18-|------------|----------------------| 
G||-10-10/12-10-|----------|------|-12b(14)-10-|----------------------| 
D||-------------|-7-9-9/12-|------|------------|------10-10/12-10-----| 
A||-------------|----------|------|------------|-10/12-----------12\8-| 
E||-------------|----------|------|------------|----------------------| 
 
FILL 6           FILL 7                  FILL 8 
e||-------------|----------------------|------------------------------| 
B||-------------|----------------------|------------------------------| 
G||-------10-10-|-10/12\10----10-12-10-|-12sb(14)-12pb(14)sr 10h12p10-| 
D||-10h12-------|----------12----------|------------------------------| 
A||-------------|----------------------|------------------------------| 
E||-------------|----------------------|------------------------------| 
 
FILL 9         FILL 10 
e||------------|-------------------------| 
B||------------|-------------------------| 
G||------------|-12sb(14)-12pb(14)sr-10\-| 
D||------------|-------------------------| 
A||-10-10/12\8-|-------------------------| 
E||------------|-------------------------| 
 
 
less
plus
Add to Songbook Print Version How to play lesson Submit videolesson
Click the best TAGS for this song:
None of them
Contributor: sidhandr Correct

If you can not find the chords or tabs you want, look at our partner E-chords. If you are a premium member, you have total access to our video lessons.

If you find a wrong Bad To Me from Jarabe De Palo, click the correct button above.

login/signup
my songbooks
my recent views
my submits